Doors - Roadhouse Blues Chords & Tabs

 

Roadhouse Blues Chords & Tabs

Doors Chords & Tabs

Version: 6 Type: Tab 0 ratings
1 star 2 stars 3 stars 4 stars 5 stars
comments

Roadhouse Blues Tab

   
Song:Roadhouse Blues
Artist:The Doors
Guitarist:Robbie Krieger
Tuning:Standard(EBGDAE)

Intro:
E|------------------------------------------------|
B|------------------------------------------------|
G|------------------------------------------------|
D|------------------------------------------------|
A|-------------------------------------------5\\7-|
E|-0--0--0--0--0--0-5\\7--0--0--0--0--0--0-------|

E|------------------------------------------------|
B|------------------------------------------------|
G|------------------------------------------------|
D|------------------------------------------------|
A|------------------------------------------------|
E|-0--0--0--0--0--0-5\\7--0--0--0--0--0--0-5\\7-|

E|------------------------------------------------|
B|------------------------------------------------|
G|------------------------------------------------|
D|------------------------------------------------|
A|-------------------------------------------5\\7-|
E|-0--0--0--0--0--0-5\\7--0--0--0--0--0--0-------|

E|------------------------------------------------|
B|------------------------------------------------|
G|------------------------------------------------|
D|------------------------------------------------|
A|-------------------5\\7--------------------5\\7-|
E|-0--0--0--0--0--0-------0--0--0--0--0--0-------|


E|------------------------------------------------|
B|------------------------------------------------|
G|------------------------------------------------|
D|------------------------------------------------|
A|-------------------5\\7-------------------------|
E|-0--0--0--0--0--0-------0--0--0--0--0--0--5\\7-|

Verse 1:
E|------------------------------------------------|
B|------------------------------------------------|
G|------------------------------------------------|
D|------------------------------------------------|
A|------------------------------------------------|
E|-0--0--0--0--0-0-5\\7--0--0--0--0--0--0-5\\7-|

E|-------------------------------|
B|-------------------------------|
G|-------------------------------|
D|-------------------------------|
A|-------------------------5-----|
E|-0--0--0--0--0--0-7p6p5---7-7-|

E|------------------------------------------------|
B|------------------------------------------------|
G|------------------------------------------------|
D|------------------------------------------------|
A|------------------------------------------------|
E|-0--0--0--0--0-0-5\\7--0--0--0--0--0--0-5\\7-|

E|--------------------------------|
B|--------------------------------|
G|--------------------------------|
D|--------------------------------|
A|---------------------------5----|
E|-0--0--0--0--0--0-7p6p5----7-7-|

E|-----------------------------------------------------|
B|-----------------------------------------------------|
G|-----------------------------------------------------|
D|-----------------------------------------------------|
A|-5---5---5----7--7--5--5-----------------------5-----|
E|---7---7---7--------------7--7-3-0-0--07p6p5----7-7-|

Verse 2:
E|------------------------------------|
B|------------------------------------|
G|-1-----1-----------1-----1----------|
D|-2-----2-----------2-----2----------|
A|-2-----2-----------2-----2----------|
E|-0-----0-0-5\\7--0-----0--0-5\\7-| 

E|------------------------------------|
B|------------------------------------|
G|-1-----1-----------1-----1----------|
D|-2-----2-----------2-----2----------|
A|-2-----2-----------2-----2----------|
E|-0-----0-0-5\\7--0-----0--0-5\\7-| 

E|------------------------------------|
B|------------------------------------|
G|-1-----1-----------1-----1----------|
D|-2-----2-----------2-----2----------|
A|-2-----2-----------2-----2----------|
E|-0-----0-0-5\\7--0-----0--0-5\\7-| 

E|---------------------------|
B|---------------------------|
G|-1-----1-------------------|
D|-2-----2-------------------|
A|-2-----2------------5------|
E|-0-----0--0-7p6p5-----7-7-|


E|------------------------------------|
B|------------------------------------|
G|-1-----1-----------1-----1----------|
D|-2-----2-----------2-----2----------|
A|-2-----2-----------2-----2----------|
E|-0-----0-0-5\\7--0-----0--0-5\\7-|

E|---------------------------|
B|---------------------------|
G|-1-----1-------------------|
D|-2-----2-------------------|
A|-2-----2------------5------|
E|-0-----0--0-7p6p5-----7-7-|

E|-----------------------------------------------------|
B|-----------------------------------------------------|
G|-----------------------------------------------------|
D|-----------------------------------------------------|
A|-5---5---5----7--7--5--5-----------------------5-----|
E|---7---7---7--------------7--7-3-0-0--07p6p5----7-7-|

Chorus:
E|------------------------|
B|------------------------|
G|------------------------|
D|-2--2--2--2--2--2--4--2-|
A|-0--0--3--4--0--0--0--0-|
E|------------------------|

E|------------------------|
B|------------------------|
G|------------------------|
D|-2--2--2--2--2--2--4--2-|
A|-0--0--3--4--0--0--0--0-|
E|------------------------|

E|------------------------|
B|------------------------|
G|------------------------|
D|-2--2--2--2--2--2--4--2-|
A|-0--0--3--4--0--0--0--0-|
E|------------------------|

E|---------------2--2--2--------|
B|---------------3--3--3--2-----|
G|--9-9-9-9-9-9--2--2--2--2-----|
D|--9-9-9-9-9-9--0--0--0--2-----|
A|--7-7-7-7-7-7-----------0-----|
E|------------------------------|

Solo:
E|----------------------------------------------------|
B|-------12-12-------12-12--------12-12-------12-12---|
G|-15b16-------15b16--------15b16-------15b16---------|
D|----------------------------------------------------|
A|----------------------------------------------------|
E|----------------------------------------------------|
[ Tab from: http://www.guitartabs.cc/tabs/d/doors/roadhouse_blues_tab_ver_6.html ]
E|----------------------------------------------------|
B|-------12-12-------12-12--------12-12-------12-12---|
G|-15b16-------15b16--------15b16-------15b16---------|
D|----------------------------------------------------|
A|----------------------------------------------------|
E|----------------------------------------------------|

E|----------------------------------------------------|
B|-------12-12-------12-12--------12-12-------12-12---|
G|-15b16-------15b16--------15b16-------15b16---------|
D|----------------------------------------------------|
A|----------------------------------------------------|
E|----------------------------------------------------|

E|-------------------------------------15b17-15-12-|
B|-------12-12-------12-15b-15-----13--------------|
G|-15b16-------15b16-----------15b-----------------|
D|-------------------------------------------------|
A|-------------------------------------------------|
E|-------------------------------------------------|

E|-------12-------12-------12-12-------12-12-------12-12------------|
B|-15b16----15b16----15b16-------15b16-------15b16------15b16r15p12-|
G|------------------------------------------------------------------|
D|------------------------------------------------------------------|
A|------------------------------------------------------------------|
E|------------------------------------------------------------------|

E|-------------------------------------------------------|
B|-------12-12-------12-12----------------12----------12-|
G|-15b16-------15b16-------15b16r15p13----12-15p13----12-|
D|-------------------------------------15----------15----|
A|-------------------------------------------------------|
E|-------------------------------------------------------|

E|----------------------------|----------------------------|
B|----------------------------|----------------------------|
G|-------9-------9-----9-----9|-------9-------9-----9-----9|
D|-9h11----9h11---9h11---9h11-|-9h11----9h11---9h11---9h11-|
A|----------------------------|----------------------------|
E|----------------------------|----------------------------|

E|----------------------------|----------------------------|
B|----------------------------|----------------------------|
G|-------9-------9-----9-----9|-------9-------9-----9-----9|
D|-9h11----9h11---9h11---9h11-|-9h11----9h11---9h11---9h11-|
A|----------------------------|----------------------------|
E|----------------------------|----------------------------|

E|---------------|---------------|---------------|---------------|
B|-----3---------|---------------|-----3---------|---------------|
G|-4s5---2b3-0---|---------------|-4s5---2b3-0---|---------------|
D|-------------2-|---------------|-------------2-|---------------|
A|---------------|---------------|---------------|---------------|
E|---------------|---------------|---------------|---------------|

E|-5b-5p3-0-|
B|----------|
G|----------|
D|----------|
A|----------|
E|----------|

Breakdown (Ad lib vocals)13x:
E|------------------------------------------------|
B|------------------------------------------------|
G|------------------------------------------------|
D|------------------------------------------------|
A|------------------------------------------------|
E|-0--0--0--0--0--0-5\\7--0--0--0--0--0--0-5\\7-|

Verse 3:
E|------------------------------------|
B|-3-----3-----------3-----3----------|
G|-1-----1-----------1-----1----------|
D|-0-----0-----------0-----0----------|
A|-2-----2-----------2-----2----------|
E|-0-----0-0-5\\7--0-----0--0-5\\7-|

E|------------------------------------|
B|-3-----3-----------3-----3----------|
G|-1-----1-----------1-----1----------|
D|-0-----0-----------0-----0----------|
A|-2-----2-----------2-----2----------|
E|-0-----0-0-5\\7--0-----0--0-5\\7-|

E|---------------------------|
B|-3-----3-------------------|
G|-1-----1-------------------|
D|-0-----0-------------------|
A|-2-----2------------5------|
E|-0-----0--0-7p6p5-----7-7-|
E|------------------------------------|
B|-3-----3-----------3-----3----------|
G|-1-----1-----------1-----1----------|
D|-0-----0-----------0-----0----------|
A|-2-----2-----------2-----2----------|
E|-0-----0-0-5\\7--0-----0--0-5\\7-|

E|---------------------------|
B|-3-----3-------------------|
G|-1-----1-------------------|
D|-0-----0-------------------|
A|-2-----2------------5------|
E|-0-----0--0-7p6p5-----7-7-|

E|-----------------------------------------------------|
B|-----------------------------------------------------|
G|-----------------------------------------------------|
D|-----------------------------------------------------|
A|-5---5---5----7--7--5--5-----------------------5-----|
E|---7---7---7--------------7--7-3-0-0--07p6p5----7-7-|

Chorus:
E|------------------------|
B|------------------------|
G|------------------------|
D|-2--2--2--2--2--2--4--2-|
A|-0--0--3--4--0--0--0--0-|
E|------------------------|

E|------------------------|
B|------------------------|
G|------------------------|
D|-2--2--2--2--2--2--4--2-|
A|-0--0--3--4--0--0--0--0-|
E|------------------------|

E|------------------------|
B|------------------------|
G|------------------------|
D|-2--2--2--2--2--2--4--2-|
A|-0--0--3--4--0--0--0--0-|
E|------------------------|

E|---------------2--2--2--------|
B|---------------3--3--3--2-----|
G|--9-9-9-9-9-9--2--2--2--2-----|
D|--9-9-9-9-9-9--0--0--0--2-----|
A|--7-7-7-7-7-7-----------0-----|
E|------------------------------|

E|-16b17-13-----------------------------||
B|----------16-13-------------------9-7-||
G|----------------15b16r15-13----13-9-7-||
D|----------------------------15----9-6-||
A|----------------------------------7-7-||
E|--------------------------------------||

Legend
\=slide
b=bend
r=release bend
p=pull-off
h=hammer-on
Comments