Doors - Riders On The Storm Chords & Tabs

 

Riders On The Storm Chords & Tabs

Doors Chords & Tabs

Version: 4 Type: Tab 0 ratings
1 star 2 stars 3 stars 4 stars 5 stars
comments

Riders On The Storm Tab

Riders on the Storm - The Doors

Standard Tuning

This is an intro I like to play when there is no organ.  If you have a delay with a
hold function, you can lay down the bass line and play this over it and it sounds
awesome.  The ascending e minor scale can be a bit tricky to get down but its awesome
when you finally get it.  Also, if you want to jam around in the beginning, use the e
minor, harmonic minor, and pentatonic minor scale.  This is my first tab that I've
posted on here, so feel free to send comments and corrections.  Have fun!

jtkvw9@mizzou.edu

	Hold                                      Hold
E-------0-----------|----------------------12--|---------------|
B-------0-----------|--------------10--12------|--12-----------|
G---4:--0-----------|-----------9--------------|---------------|
D---4:--2-----------|--------------------------|---------------|
A-------2-----------|--------------------------|---------------|
E-------0-----------|--------------------------|---------------|


                                                      Hold
E-------------------------------------|------------------------|
B--------------------8h10p8-----------|--8---------------------|
G----------------------------11p9h11--|-----11-----7-----9-----|
D-------------------------------------|------------------------|
A-------------------------------------|------------------------|
E-------------------------------------|------------------------|
[ Tab from: http://www.guitartabs.cc/tabs/d/doors/riders_on_the_storm_tab_ver_4.html ]
E---7-----5-----------------------------------------|
B------8-----7--8--5--7-----5-----------------------|
G------------------------7-----6--7--4--6-----4-----|
D------------------------------------------7-----5--|
A---------------------------------------------------|
E---------------------------------------------------|

E---5-----------------------------------------------|
B------7--8--5--7-----5-----------------------------|
G------------------7-----6--7--4--6-----4-----------|
D------------------------------------7-----5--7--4--|
A---------------------------------------------------|
E---------------------------------------------------|

E------------------------------------------0--|
B------------------------------------------0--|
G------------------------------------------0--|
D---5-----4--------------------------------2--|
A------7-----5--7--4--5-----4-----2--------2--|
E------------------------7-----5-----3--0--0--|


                                                      Riders..
E---------------------------------------------------||------------------|
B---------------------------------------------------||------------------|
G---------------0-----------0-----------0-----------||0-----------------|
D------------4--2--------4--2--------4--2--------4--||2-----------------|
A------------5--2--------5--2--------5--2--------5--||2-----------------|
E---------------------------------------------------||------------------|

========================================================================
==               Created with BUCKET O' TAB for Windows               ==
==                  For more info email gse@his.com                   ==
========================================================================
Comments