Doors - Riders On The Storm Chords & Tabs

 

Riders On The Storm Chords & Tabs

Doors Chords & Tabs

Version: 3 Type: Tab 0 ratings
1 star 2 stars 3 stars 4 stars 5 stars
comments

Riders On The Storm Tab

   
RIDERS ON THE STORM
As recorded by The Doors
(From the 1971 Album L.A. WOMAN)

Gtr I (E A D G B E) - 'Robbie Kreiger Guitar'
Gtr II (E A D G B E) - 'Robbie Kreiger Guitar w/tremolo'
Gtr III (E A D G B E) - 'Ray Manzarek Keyboard'

Intro
  Q=108
 4/4
  Gtr III
  W          +H.      S  S  S  S    W           +H      +E   S  S  S  S  S  S
|----------|------------------12-|-----------|--------------15-17p15p14----14-|
|----------|------------10-12----|-12--------|-(12)----(12)-------------17----|
|----------|----------9----------|-----------|--------------------------------|
|----------|---------------------|-----------|--------------------------------|
|----------|---------------------|-----------|--------------------------------|
|-0--------|-(0)-----------------|-----------|--------------------------------|


   E  E E  E E  A  Q.      +W
|-15-14-----------------|-------------|
|---------15---15h17----|-(17)--------|
|-----------------------|-------------|
|-----------------------|-------------|
|-----------------------|-------------|
|-----------------------|-------------|


   S  S  S  S  S  S  S  S  S  S  S  S  S  S  S  S
|-19-15-17----15----------------------------------|
|----------19----17-19-15-17----15----------------|
|----------------------------18----16-18-14-16----|
|----------------------------------------------17-|
|-------------------------------------------------|
|-------------------------------------------------|


   S  S  S  S  S  S  S  S  S  S  S  S  S  S  S S
|------------------------------------------------|
|------------------------------------------------|
|-14---------------------------------------------|
|----16-17-14-16-12-14-11-12----11---------------|
|----------------------------14----12-14-10-12-9-|
|------------------------------------------------|


   S  S S  S  S S  S S S S E E E   H.      Q    H.      Q
|--------------------------------|------------|--------------|
|--------------------------------|------------|--------------|
|--------------------------------|-9----------|-9------------|
|------------------------------7-|-9-------5--|-9-------5----|
|-10----9--------------------4-5-|-7-------7--|-7-------7----|
|----12---10-12-9-10-7-9-7-5-----|-0----------|-0------------|


                            Verse 1
  Gtr I
  W            W             W            E. S E E A H
|------------|------------||------------|-------------------|
|------------|------------||------------|-------------------|
|------------|------------||------------|-------------------|
|------------|------------||------------|-2--2-2-0-0h2------|
|------------|------------||------------|-------------------|
|------------|------------||------------|-------------------|
|
| Gtr III
| H.      Q    H.      Q     H.      Q    H.            Q
|------------|------------||------------|-------------------|
|------------|------------||------------|-------------------|
|-9----------|-9----------||-9----------|-9-----------------|
|-9-------5--|-9-------5--||-9-------5--|-9-------------5---|
|-7-------7--|-7-------7--||-7-------7--|-7-------------7---|
|-0----------|-0----------||-0----------|-0-----------------|


  +W            E. S E E E E Q
|-------------|-----------------|
|-------------|-----------------|
|-------------|-----------------|
|-(2)---------|-2--2-2-0-2-0----|
|-------------|--------------2--|
|-------------|-----------------|
|
|  H.      Q    H.           Q
|-------------|-----------------|
|-------------|-----------------|
|--9----------|-9---------------|
|--9-------5--|-9------------5--|
|--7-------7--|-7------------7--|
|--0----------|-0---------------|


   W                   E.     S E E    H
|-------------------|---------------------------|
|-------------------|---------------------------|
|-------------------|---------------------------|
|-------------------|---------------------------|
|-------------------|--0------0-0-3b4--0--------|
|-------------------|---------------------------|
|
|  E  Q.    E  Q.      E   Q.          E  Q.
|--8--8----10-10----|-12--12----------14-14-----|
|-10-10----12-12----|-13--13----------15-15-----|
|--9--9----11-11----|-12--12----------14-14-----|
|-------------------|---------------------------|
|--0----------------|-(0)-----------------------|
|-------------------|---------------------------|
   W                  +W
|-Rhy Fig 1                       end Rhy Fig 1-|


  W            +E. S E E E E E E    W
|------------|-------------------|------------|
|------------|-------------------|------------|
|------------|-------------------|------------|
|------------|-----2-2-0---------|--0---------|
|------------|-----------2-0-----|------------|
|-0----------|-(0)-----------3-0-|------------|
|
| H.      Q     W                   Q   H.
|------------|-------------------|------------|
|------------|-------------------|-12--10-----|
|-9----------|--0----------------|-12--11-----|
|-9-------7--|--9----------------|-12--12-----|
|-7-------5--|--7----------------|------------|
|-0----------|--0----------------|------------|
                                 |-Rhy Fig 2

                           PM----------------------
      H.             E E   E E E  E   E   E  E  E
|------------------------|------------------------|
|------------------------|------------------------|
|-----5------------------|------------------------|
|-----5------------------|------------------------|
|-----3--------------2-0-|---2----2----------4----|
|-----3------------------|-0---3------0---5-----5-|
|
|  A  E   Q.    +H         E E E  E  +E   E  E  E
|------------------------|------------------------|
|---------8-----(8)------|-8---8-10-(10)----10-12-|
|-10h11---9-----(9)------|------------------------|
|----10--10----(10)------|---9---11-(11)-11----12-|
|------------------------|------------------------|
|------------------------|-0----------------------|
          end Rhy Fig 2-||-Rhy Fig 3

 --------------------------|
    E   E  E  E   E   E  E  E
|------------------------------||
|------------------------------||
|------------------------------||
|------------------------------||
|-------2-----2----------4-----||
|---0------3------0---5-----5--||
|
|  +E   E  E  E  +E   E  E  E
|------------------------------||
|-(12)----12-10-(10)----10-----||
|------------------------------||
|-(12)-12----11-(11)-11----11--||
|------------------------------||
|------------------------------||
                 end Rhy Fig 3-|

 Verse 2 - 4
  $
  $$
w/Rhy Fig 3 x2
   E E E A  E  +E   E  E A  E    +E   E  E A  E  +E   E  E  E
||-----------------------------|--------------------------------||
||o-0---0-0h=2--(2)-----2-2h=3-|--(3)-----3-3p=2--(2)-----2----o||
||----0--------------0---------|-------0---------------0-----0--||
||-----------------------------|--------------------------------||
||o----------------------------|-------------------------------o||
||-----------------------------|--------------------------------||



   E  Q.    E  Q.      E   Q.    E  Q.
|-------------------|-----------14-14----|
|-------------------|-13--13----15-15----|
|--9--9----11-11----|-12--12----14-14----|
|-------------------|-14--14----16-16----|
|--7--7-----9--9----|--------------------|
|-------------------|--------------------|
|
|  E  Q.    E  Q.      E   Q.    E  Q.
|--8--8----10-10----|-12--12----14-14----|
|-10-10----12-12----|-13--13----15-15----|
|--9--9----11-11----|-12--12----14-14----|
|-------------------|--------------------|
|--0----------------|-(0)----------------|
|-------------------|--------------------|
   W                  +W


  E E E A  E  +E   E  E A  E    +E   E  E A  E  +E   E  E  E
|----------------------------|--------------------------------|
|-0---0-0h=2--(2)-----2-2h=3-|--(3)-----3-3p=2--(2)-----2-----|
|---0--------------0---------|-------0---------------0-----0--|
|----------------------------|--------------------------------|
|----------------------------|--------------------------------|
|----------------------------|--------------------------------|
|
| E E E    E  +E   E  E    E    +E   E  E    E  +E   E  E  E
|----------------------------|--------------------------------|
|-8---8---10-(10)----10---12-|-(12)----12---10-(10)----10-----|
|----------------------------|--------------------------------|
|---9-----11-(11)-11------12-|-(12)-12------11-(11)-11----11--|
|----------------------------|--------------------------------|
|-0--------------------------|--------------------------------|


                              To Dbl. Coda
   Q   Q   Q  E. S       E  Q   E   H
|--2---2---2--2--2-|----------------------|
|--3---3---3--3----|----------------------|
|--2---2---2--2----|--------5-------5-----|
|--0---0---0--0----|--------5---5---5-----|
|------------------|--------7-------7-----|
|------------------|----------------------|
|
|  Q   H.             A  E  Q.     +H
|------------------|----------------------|
|-12--10-----------|--------8------(8)----|
|-12--11-----------|-10h11--9------(9)----|
|-12--12-----------|----10-10-----(10)----|
|------------------|----------------------|
|------------------|----------------------|


                                                   To Coda
  E E E A  E  +E   E  E A  E    +E   E  E A  E  +H
|----------------------------|-------------------------------||
|-0---0-0h=2--(2)-----2-2h=3-|--(3)-----3-3p=2--(2)----------||
|---0--------------0---------|-------0-----------------------||
|----------------------------|-------------------------------||
|----------------------------|-------------------------------||
|----------------------------|-------------------------------||
|
| E E E    E  +E   E  E    E    +E   E  E    E  +E   E  E  E
|----------------------------|-------------------------------||
|-8---8---10-(10)----10---12-|-(12)----12---10-(10)----10----||
|----------------------------|-------------------------------||
|---9-----11-(11)-11------12-|-(12)-12------11-(11)-11----11-||
|----------------------------|-------------------------------||
|-0--------------------------|-------------------------------||


 Guitar Solo
  Gtr II
            ~~~~~~~~~~~
  E. S E  E H      +Q     S S S S  S  S S S q
|----------------|--------------------------0--|
|----------------|----------------------0h2----|
|---------0------|-----------------0h=2--------|
|-2--2-2----2----|-(2)--------0h2--------------|
|----------------|--------0h2------------------|
|----------------|-----------------------------|
|
| Gtr III
| Q    H.           E  Q.         +H
|----------------|-----------------------------|
|-8----8---------|-10--8----------(8)----------|
|-9----9---------|-11--9----------(9)----------|
|-9----9---------|-11--9----------(9)----------|
|----------------|-----------------------------|
|----------------|-----------------------------|


  E. S E  E H         E   +E  S S E  Q   E E
|----0-0---------|---------------------------|
|-0-------3-0----|---------------------------|
|----------------|----2b3-(3)-2-0------------|
|----------------|----------------2--2---0---|
|----------------|-------------------------2-|
|----------------|---------------------------|
|
| Q    H.          A  E    Q.       +H
|----------------|---------------------------|
|-8----8---------|-8S10----8--------(8)------|
|-9----9---------|-9S11----9--------(9)------|
|-9----9---------|-9S11----9--------(9)------|
|----------------|---------------------------|
|----------------|---------------------------|


   E.     S E E      H           S  S  E  S S E  S  S  E  E A E
|-----------------------------|---------------------------0-----|
|-----------------------------|------------------2p=0-----------|
|-----------------------------|-----------2p0----------2----2s4-|
|-----------------------------|--2--0---------2-----------------|
|--0------0-0-3b3.5--0--------|--------0------------------------|
|-----------------------------|---------------------------------|
|
|  E   Q.            E   Q.      E     Q.        E     Q.
|--8---8------------10--10----|-12----12--------14----14--------|
|-10--10------------12--12----|-13----13--------15----15--------|
|--9---9------------11--11----|-12----12--------14----14--------|
|-----------------------------|---------------------------------|
|--0--(0)-----------(0)-(0)---|-(0)---(0)-------(0)---(0)-------|
|-----------------------------|---------------------------------|


  +Q   A  E  E Q.   A E      +E   E  A E E A   Q.   E
|-----------------------|-------------------------------|
|-----------------------|-------------------------------|
|-(4)--4s=2--0------2s4-|----(4)--4--4s2-0-2s==4----0---|
|--------------2--------|-------------------------------|
|-----------------------|-------------------------------|
|-----------------------|-------------------------------|
|
|  Q      H.               A  E   Q.          +H
|-----------------------|-------------------------------|
|-14-----12-------------|-12-14--12----------(12)-------|
|-14-----12-------------|-12-14--12----------(12)-------|
|-14-----12-------------|-12-14--12----------(12)-------|
|-----------------------|-------------------------------|
|-----------------------|-------------------------------|


   Q   Q   S E. Q     E  Q.     H       A A A W
|------2---2-2--2--|------------------|--------------------------------------|
|------3---3-3--3--|------------5-----|-------0------------------------------|
|------2---2-2--2--|-----5------5-----|-----x--------------------------------|
|--0---0---0-0--0--|-----5------------|---x----------------------------------|
|------------------|-----7------------|-x------------------------------------|
|------------------|------------------|--------------------------------------|
|
|  q   H.             E  Q.    +H             E  E   E   E   +E   E   E   E
|------------------|------------------|--------------------------------------|
|-12--10-----------|-10--8-----(8)----|-------8------8--10--(10)-----10--12--|
|-12--11-----------|-11--9-----(9)----|--------------------------------------|
|-12--12-----------|-12-10----(10)----|----------9------11--(11)-11------12--|
|------------------|------------------|--------------------------------------|
|------------------|------------------|-------0-(0)-(0)-(0)--(0)-(0)-(0)-(0)-|


                                                                D.S. al Coda
                              Gtr I
   +W                           E E E A E +E  E  E  E   +E  E E E +E  E E E
|-----------------------------|-----------------------|----------------------||
|--(0)------------------------|-0---0-0h2-(2)---(2)-3-|-(3)---3-2-(2)---2----||
|-----------------------------|---0-----------0-------|-----0---------0---0--||
|-----------------------------|-----------------------|----------------------||
|-----------------------------|-----------------------|----------------------||
|-----------------------------|-----------------------|----------------------||
|
|  +E   E  E  E  +E   E  E  E   W                        W
|-----------------------------|-----------------------|----------------------||
|-(12)----12-10-(10)----10----|-----------------------|----------------------||
|-----------------------------|-----------------------|----------------------||
|-(12)-12----11-(11)-11----11-|-----------------------|----------------------||
|-----------------------------|-----------------------|----------------------||
|-----------------------------|-----------------------|----------------------||


 Keyborad Solo (Guitar part)
  &
  Gtr I
   H     H      Q   E.  S H      Q   Q   E  E  S S E
|-12\---------|----------------|----12\----12\--------|
|-12\---------|----12--12------|-----------12\---x----|
|-12\---------|----12--12------|-----9\----------x----|
|-------------|----------------|------------9\--------|
|-------------|----------------|----------------------|
|-------------|----------------|----------------------|


  W          Q   E.  S E  Q   E   W          Q   E. S E  E  Q
|----------|----12--12---12\--x-|----------|-------------------|
|----------|----12--12-x-12\--x-|----------|----14--x---12\----|
|----------|----12--12-x--------|----------|----14--x---12\----|
|----------|-----------x--------|----------|-------------------|
|----------|--------------------|----------|-------------------|
|----------|--------------------|----------|-------------------|


  Q   E.  S E  E  S S E   Q   E  S  S E  Q.
|-----------------------|----12---------14----|
|----14--14-x-12\---0---|-------12-12---------|
|----14--14-x-12\-------|-----9---------11----|
|-----------x-----------|--------9--9---------|
|-----------------------|---------------------|
|-----------------------|---------------------|


  Q   E. S E  E  +S    S  E   Q   E.  S E  E  +S  S E
|----15--x---14-(14)--------|----12--12---14-(14)-x-x-|
|----15--x---14-(14)--------|----12--12---14-(14)-x-x-|
|----16--x------------------|-------------------------|
|---------------------------|----14-------------------|
|--------------------(15)---|-------------------------|
|---------------------------|-------------------------|


   E.  S Q  E  E  +S   S E   Q   E  E  E  Q   E
|-15--15------14-(14)-14---|----12-12\----------|
|-15--15------14-(14)-14---|----12-------14\----|
|-16-----------------------|----12--------------|
|-------------16-(16)------|--------------------|
|--------------------------|--------------------|
|--------------------------|--------------------|

[ Tab from: http://www.guitartabs.cc/tabs/d/doors/riders_on_the_storm_tab_ver_3.html ]
  Q  E  e S  S E q    Q   e S  S S  S S  S  q
|------12---10---7--|----12---------------------|
|------12-x-10---7--|----12---14---14---14-14---|
|------12-x---------|----12---14---14---14-14---|
|-------------------|--------------16---16-16---|
|-------------------|---------------------------|
|-------------------|---------------------------|



        |--3--|  |--3--|
  E  E  E  E  E  E  E  E Q    keyboard plays another 28 bars
|---12----------------------|----------|  gtr continues similar
|---12-12-13-14-15-16-17----|----------|
|---12-12-13-14-15-16-17----|----------|
|------12-13-14-15-16-17----|----------|
|---------------------------|----------|
|---------------------------|----------|


 Gtr III
   S  S  S  S  S  S  S  S  S  S  S  S  S  S  S  S
|-19-15-17----15-----------------------------------|
|----------19----17-19-15-17----15-----------------|
|----------------------------18----16-18-14-16-----|
|----------------------------------------------17--|
|--------------------------------------------------|
|--------------------------------------------------|


   S  S  S  S  S  S  S  S  S  S  S  S  S  S  S S
|------------------------------------------------|
|------------------------------------------------|
|-14---------------------------------------------|
|----16-17-14-16-12-14-11-12----11---------------|
|----------------------------14----12-14-10-12-9-|
|------------------------------------------------|


   S  S S  S  S S  S S S S E E E
|--------------------------------|
|--------------------------------|
|--------------------------------|
|------------------------------7-|
|-10----9--------------------4-5-|
|----12---10-12-9-10-7-9-7-5-----|


  Gtr I
  W             W             +W            W           W
|------------|-12----------|-(12)---------|----------|--------|
|------------|-12----------|-(12)---------|----------|--------|
|------------|-12----------|-(12)---------|----------|--------|
|------------|-14----------|-(14)---------|----------|--------|
|------------|-------------|--------------|----------|--------|
|------------|-------------|--------------|----------|--------|
|
| Gtr III
| H.      Q     H.      Q      H.      Q    W          +W
|------------|-------------|--------------|----------|--------|
|------------|-------------|--------------|----------|--------|
|-0----------|--0----------|---0----------|-0--------|-(0)----|
|-9-------7--|--9-------7--|---9-------7--|-9--------|-(9)----|
|-7-------5--|--7-------5--|---7-------5--|-7--------|-(7)----|
|-0----------|--0----------|---0----------|-0--------|-(0)----|


                                         D.S.S. al Dbl. Coda
    E E E A  E  +E   E  E A  E    +E   E  E A  E  +E   E  E  E  4x
||-----------------------------|--------------------------------||
||o-0---0-0h=2--(2)-----2-2h=3-|--(3)-----3-3p=2--(2)-----2----o||
||----0--------------0---------|-------0---------------0-----0--||
||-----------------------------|--------------------------------||
||o----------------------------|-------------------------------o||
||-----------------------------|--------------------------------||
|
|   E E E    E  +E   E  E    E    +E   E  E    E  +E   E  E  E  4x
||-----------------------------|--------------------------------||
||o-8---8---10-(10)----10---12-|-(12)----12---10-(10)----10----o||
||-----------------------------|--------------------------------||
||----9-----11-(11)-11------12-|-(12)-12------11-(11)-11----11--||
||o----------------------------|-------------------------------o||
||--0--------------------------|--------------------------------||


                                  Outro
  &&
    E   E  E A  E  +H              A Q   Q      Q     A  E  E
|-------------------------------||----------------------------|
|--(3)-----3-3h=5--(5)----------||-5s7---7------5-----5s=3--7-|
|-------0-----------------------||----------------------------|
|-------------------------------||----------------------------|
|-------------------------------||----------------------------|
|-------------------------------||----------------------------|
|
|   E   E  E    E  +E   E  E  E      E E E  E  +E   E    E  E
|-------------------------------||----------------------------|
|-(12)----12---10-(10)----10----||---8---8-10-(10)------10-12-|
|-------------------------------||----------------------------|
|-(12)-12------11-(11)-11----11-||-----9---11-(11)-11------12-|
|-------------------------------||----------------------------|
|-------------------------------||---0------------------------|


   +H.                   Q      a Q.      E   Q      e  S    +S
|-----------------------------|-----------------------------------|
|--(7)------------------------|-5s7-------7---5------3--5b7==(7)--|
|-----------------------------|-----------------------------------|
|-----------------------------|-----------------------------------|
|-----------------------------|-----------------------------------|
|-----------------------------|-----------------------------------|
|
|  +E   E  E  E  +E   E  E  E     E  E E  E  +E   E  E  E
|-----------------------------|-----------------------------------|
|-(12)----12-10-(10)----10----|---8----8-10-(10)----10-12---------|
|-----------------------------|-----------------------------------|
|-(12)-12----11-(11)-11----11-|------9---11-(11)-11----12---------|
|-----------------------------|-----------------------------------|
|-----------------------------|---0-------------------------------|


   +E    Q     Q       Q.         +E  E    +E   E  +Q.        S S
|-------------------------------|---------------------------------|
|--(7)r--3-----2-------0--------|-(0)-2b3==(3)--3r=(2)--------0-2-|
|-------------------------------|---------------------------------|
|-------------------------------|---------------------------------|
|-------------------------------|---------------------------------|
|-------------------------------|---------------------------------|
|
|  +E    E  E  E  +E   E   E  E    E  E     E   E  +E   E  E  E
|-------------------------------|---------------------------------|
|-(12)-----12-10-(10)-----10----|--8--------8--10-(10)----10-12---|
|-------------------------------|---------------------------------|
|-(12)--12----11-(11)-11-----11-|-----9--------11-(11)-11----12---|
|-------------------------------|---------------------------------|
|-------------------------------|--0------------------------------|


    Q.        E  +E   E  E     +E       +E  E E  E   E    Q     E
|-------------------------------------|----------------------------|
|---0---------------------------------|----------------------------|
|-------------2--(2)--4--4pb5==(5)b6==|=(6)-4r4--4---4b6--4--------|
|-------------------------------------|----------------------------|
|-------------------------------------|----------------------------|
|-------------------------------------|----------------------------|
|
|  +E   E  E  E  +E   E  E      E        E  E E  E  +E    E  E  E
|-------------------------------------|----------------------------|
|-(12)----12-10-(10)----10------------|--8----8-10-(10)-----10-12--|
|-------------------------------------|----------------------------|
|-(12)-12----11-(11)-11--------11-----|-----9---11-(11)--11----12--|
|-------------------------------------|----------------------------|
|-------------------------------------|--0-------------------------|


    S  S  Q.        +E   E  S S  E      +Q     Q        +Q      E  E
|-------------------------------------|---------------------------------|
|-------------------------------------|---------------------------------|
|---4--2--------------------2-4--4b6==|=(6)r---4pb6r====(4)-----2--4b6==|
|---------4---------(4)--4------------|---------------------------------|
|-------------------------------------|---------------------------------|
|-------------------------------------|---------------------------------|
|
|  +E     E   E  E  +E   E  E    E       E   E E     E  +E   E  E  E
|-------------------------------------|---------------------------------|
|-(12)-------12-10-(10)----10---------|--8-----8----10-(10)----10-12----|
|-------------------------------------|---------------------------------|
|-(12)---12-----11-(11)-11------11----|------9------11-(11)-11----12----|
|-------------------------------------|---------------------------------|
|-------------------------------------|--0------------------------------|


   +Q       E    +E   +H             A Q   Q      Q      E A  E
|----------------------------------|----------------------------|
|----------------------------------|-5s7---7------5------3-5s=7-|
|--(6)r-----4pb6r(4)--(4)----------|----------------------------|
|----------------------------------|----------------------------|
|----------------------------------|----------------------------|
|----------------------------------|----------------------------|
|
|  +E    E  E     E   +E   E  E  E     E E E  E  +E   E  E    E
|----------------------------------|----------------------------|
|-(12)-----12----10--(10)----10----|---8---8-10-(10)----10---12-|
|----------------------------------|----------------------------|
|-(12)--12-------11--(11)-11----11-|-----9---11-(11)-11------12-|
|----------------------------------|----------------------------|
|----------------------------------|---0------------------------|


   +Q.        S S  +E   Q     S S      +Q    S S  E   Q.        E
|------------------------------------|----------------------------|
|--(7)--------7s5--(5)--3-----3-3pb4r|=(3)---2-3p=2---------------|
|------------------------------------|----------------4---------2-|
|------------------------------------|----------------------------|
|------------------------------------|----------------------------|
|------------------------------------|----------------------------|
|
|  +E   E  E  E    +E   E  E  E         E  E E    E  +E   E  E  E
|------------------------------------|----------------------------|
|-(12)----12-10---(10)----10---------|--8----8---10-(10)----10-12-|
|------------------------------------|----------------------------|
|-(12)-12----11---(11)-11----11------|-----9-----11-(11)-11----12-|
|------------------------------------|----------------------------|
|------------------------------------|--0-------------------------|


   +E   E  E  E  +E   E  E  E   +E  E E  E     +Q.        E
|-----------------------------|------------------------------|
|-----------------------------|------------------------------|
|--(2)--4--2----------2--4--2-|-(2)-4-2--4b6===(6)r=======4--|
|-------------4--(4)----------|------------------------------|
|-----------------------------|------------------------------|
|-----------------------------|------------------------------|
|
|  +E   E  E  E  +E   E  E  E    E  E E  E     +E   E  E  E
|-----------------------------|------------------------------|
|-(12)----12-10-(10)----10----|--8----8-10----(10)----10-12--|
|-----------------------------|------------------------------|
|-(12)-12----11-(11)-11----11-|-----9---11----(11)-11----12--|
|-----------------------------|------------------------------|
|-----------------------------|--0---------------------------|


   +E   E  E  E  +E   Q     E     +Q    E    +E    H
|-------------------------------|------------------------------|
|-------------------------------|------------------------------|
|--(4)--2--4--2--(2)--------4b6-|-(6)---4pb6r(4)---2-----------|
|---------------------4---------|------------------------------|
|-------------------------------|------------------------------|
|-------------------------------|------------------------------|
|
|  +E   E  E  E  +E   E  E  E      E  E E     E   +E   E  E  E
|-------------------------------|------------------------------|
|-(12)----12-10-(10)----10------|--8----8----10--(10)----10-12-|
|-------------------------------|------------------------------|
|-(12)-12----11-(11)-11----11---|-----9------11--(11)-11----12-|
|-------------------------------|------------------------------|
|-------------------------------|--0---------------------------|


   +E   S S  E  E   E   E  E  S S   Q   +S  S  S S   E   +Q      S S
|---------------------------------|-----------------------------------|
|-----------------------------0-1-|-2---(2)----0-2---2b3-(3)-----2-3--|
|--(2)----2-------------2--4------|---------2-------------------------|
|-------4----4--2---4-------------|-----------------------------------|
|---------------------------------|-----------------------------------|
|---------------------------------|-----------------------------------|
|
|  +E   E    E  E  +E   E  E  E     E E  E     E    +E    E   E  E
|---------------------------------|-----------------------------------|
|-(12)------12-10-(10)----10------|-8----8----10---(10)------10-12----|
|---------------------------------|-----------------------------------|
|-(12)-12------11-(11)-11----11---|---9-------11---(11)--11-----12----|
|---------------------------------|-----------------------------------|
|---------------------------------|-0---------------------------------|


                                    ~
    Q      E  E   E   +Q.         A W
|-------------------------------|--------------------------|
|---0------5--3---5b7-(7)-------|-5h7----------------------|
|-------------------------------|--------------------------|
|-------------------------------|--------------------------|
|-------------------------------|--------------------------|
|-------------------------------|--------------------------|
|
|  +E   E  E  E  +E    E   E  E     E E E  E  +E   E  E  E
|-------------------------------|--------------------------|
|-(12)----12-10-(10)------10----|---8---8-10-(10)----10-12-|
|-------------------------------|--------------------------|
|-(12)-12----11-(11)--11-----11-|-----9---11-(11)-11----12-|
|-------------------------------|--------------------------|
|-------------------------------|---0----------------------|


  A   E.    S  E  E   Q      Q      Q   A A  Q     +E   Q      E
|---------------------------------|---------12----(12)-12----------|
|-5h==7-----7--7--7---7------7----|---------12----(12)-------(14)--|
|---------------------------------|-------x------------------------|
|---------------------------------|-----x--------------------------|
|---------------------------------|--------------------------------|
|---------------------------------|--------------------------------|
|
|    +E   E    E  E  +E   E  E  E   E E      E  E  +E   E  E   E
|---------------------------------|--------------------------------|
|---(12)------12-10-(10)----10----|-8--------8-10-(10)----10--12---|
|---------------------------------|--------------------------------|
|---(12)-12------11-(11)-11----11-|---9--------11-(11)-11-----12---|
|---------------------------------|--------------------------------|
|---------------------------------|-0------------------------------|



   A  A   W                           W
|--------14-------------------------|------------------------|
|--------14-------------------------|------------------------|
|----15-----------------------------|------------------------|
|-13--------------------------------|------------------------|
|-----------------------------------|------------------------|
|-----------------------------------|------------------------|
|
|        +E   E  E  E  +E   E  E  E   E E E  E  +E   E  E  E
|-----------------------------------|------------------------|
|-------(12)----12-10-(10)----10----|-8---8-10-(10)----10-12-|
|-----------------------------------|------------------------|
|-------(12)-12----11-(11)-11----11-|---9---11-(11)-11----12-|
|-----------------------------------|------------------------|
|-----------------------------------|-0----------------------|



            |-3--|
   E.    S  Q    E  +Q.        S S
|------------5--------------------5-|
|---------7-------7--(7)------------|
|-------------------------------6---|
|--(0)------------------------------|
|-----------------------------------|
|-----------------------------------|
|
|  +E   E    E  E    +E   E  E  E
|-----------------------------------|
|-(12)------12-10---(10)----10------|
|-----------------------------------|
|-(12)-12------11---(11)-11----11---|
|-----------------------------------|
|-----------------------------------|




  S E.   H.                      S  E.    +Q      +Q.        E
|--------5-------------------|------------------------------------|
|----------------------------|---7--------------------------------|
|-6--------------------------|------7-----(7)-----(7)s======12----|
|---7------------------------|------------------------------------|
|----------------------------|------------------------------------|
|----------------------------|------------------------------------|
|
| E    E E   E  +E   E  E  E    +E      E  E   E  +E   E  E  E
|----------------------------|------------------------------------|
|-8------8--10-(10)----10-12-|-(12)-------12--10-(10)----10-------|
|----------------------------|------------------------------------|
|------9----11-(11)-11----12-|-(12)----12-----11-(11)-11----11----|
|----------------------------|------------------------------------|
|-0--------------------------|------------------------------------|


    W            W            W            W          W
|-^12--------|-^14--------|-^-9--------|-^12--------|------*|
|-^12--------|-^15--------|-^10--------|-^12--------|------*|
|-^12--------|-^16--------|-^-9--------|-^12--------|------*|
|------------|-^17--------|-^-9--------|-^12--------|------*|
|------------|-^15--------|-^-9--------|------------|------*|
|------------|-^15--------|-^10--------|------------|------*|
Comments