Doors - Queen Of The Highway Chords & Tabs

 

Queen Of The Highway Chords & Tabs

Doors Chords & Tabs

Version: 2 Type: Bass Tab 0 ratings
1 star 2 stars 3 stars 4 stars 5 stars
comments

Queen Of The Highway Bass Tab

   
The Doors - Queen of the Highway

The bass part is completely written out and I tried to include all the
variations, so it is rather a mess.

intro:
G|--------------|
D|--------------|
A|-2-2-22-2-2-2-|
E|--------------|

chorus:
Play after queen of the highway
G|-
D|-
A|3
E|-

G|-12-10------------------------------------------------------|
D|-------13-12-10---------------------------------------------|
A|---------------1310-----------------------------13-14-15-16-|
E|--------------------13-13-1313-13-14-14-1414-14-------------|

verse: (play simultaneously)
  G vith variations
G|-----------------------------------------------|
D|-----------------------------------------------|
A|-10---10--10---8-9-10---10---10---10-8----8-10-|
E|-------------8-------------------------10------|

C with variations
-----------------------------------------------|
-10---10---10-8-10-8-----10---10-----8-8-10----|
--------------------10----------------------8--|
-----------------------------------------------|

G with variations
-------------------------------------------|
-------------------------------------------|
-10---10---10-8-9-10---10---10--------10-9-|
--------------------------------10-10------|

F with variations/intro
--------------------------|--------------|
--------------------------|--------------|
-8---8-------10--8ring--/3|2-2-22--2-2-2-|
---------8-8--------------|--------------|

chorus:
(0:44) The high notes go along with the "She is a good girl"
(/7 during "a") and (/5 during "good"). To be able to slide
the tone, you need to hold the 4th tone on the g-string (B).
Actually there are two basses, but you can play it at once.
G|--------------------4h6-2h4------------------------------------------|
D|--------------------------------7-/5-------910--10--10-10---10-10-10-|
A|-----------0---0--0----(0)-------------------------------------------|
E|-0---0---0----------------3--3-3----3--3-33--------------------------|

------------------------------------------------------------|
-------------------3--3-3--3--3--3-3--34--4-4--4--8-9-10-11-|
-10---10-10---10--------------------------------------------|
-----------------------------1------1-----------------------|

verse: There are actually two bases. I couldn't put them in one bar
with good timing. If someone is able to play them together
in one bar, submit it. They play:
-------------5--7---5-------5---5--320235--3--5--7--5--5--3--0-|
-5---7---8-------------8-7-------------------------------------|
---------------------------------------------------------------|
---------------------------------------------------------------|

--------------------------------------------------------------------|
--------------------------7-8-10--10--8--8--9-10-8-10-8-------------|
-10-10-------8-9-10-10--10----------10-10---------------10-10-8-10--|
-------10-10--------------------------------------------------------|
[ Tab from: http://www.guitartabs.cc/tabs/d/doors/queen_of_the_highway_btab_ver_2.html ]
the second part of the verse is one bass (or the two basses play almost the same)
-----------------------------------------------------------------------|
-----------------------------------------------------------------------|
-10--10------8-9---10--10--10------10-9-8--8--8----6-7-8--8--8-8-8-8-8-|
-------10-10-----------------10-10-------------8-8---------------------|

interlude(1:24)
--------------------------------------------------------------------------|
-8--8-x8--8--7--7-x7--7--------------------------7--7--5--5---------------|
-------------------------5--5-x5--5--8--8-x8--8--------------2-2-22-2-2-2-|
--------------------------------------------------------------------------|

american boy...
---------------------------------------------------------------------------|
-----------------------------------10--10-10--10---10-10-10----------------|
----------0--0-0--0--------------------------------------------------------|
-0---0---0---------3--3-3--3--3-3-3-------------------------3--3-3--3--3-3-|

-----------------------------------|
-------------------------8-9-10-11-|
-8--8-8--8-8-8--9--9-9-9-----------|
-----------------------------------|

verse (2:01) C with variations
--------------------------------------------|
--------------------------------------------|
-10---10---8-8-9-10---10--10---10-------8-9-|
----------------------------------10-10-----|

G with variations
-----------------------------------------|
-------------------8--10------8-8-8-10---|
---------------10----------------------8-|
-8---8---8-------------------------------|

C with variations
-------------------------------------------|
------------------------------------8-10---|
-10---10--10-------8-9-10---10---10------9-|
-------------10-10-------------------------|

F
-------------------------------|
-------------------------------|
-8--8--8-8---8---8--8--8-8---8-|
-------------------------------|

F#
------------------------------------|
----------------8-8h9-9h10-10h11-11-|
-9--9--9-9---9----------------------|
------------------------------------|

C with variations (2:20)
---------------------------------------------|
---------------------------------------------|
-10---10--10-------8-9-10---10--10x-10x------|
-------------10-10----------------------10-9-|

G with variations
-----------------------------------------|
----10------8-10-8--10-----10--8---------|
--------10------------------------10-8-9-|
-8---------------------------------------|

C with variations
---------------------------------------|
-----------------8---------------------|
-10---10--8-8-10---8-10---10-8-10---10-|
----------------------------------8----|

F
-------------------------------|
-------------------------------|
-8--8--8-8---8---8--8--8-8---8-|
-------------------------------|

F#
---------------------------------------|
----------------8-8h9-9h10-10h11-11----|
-9--9--9-9---9----------------------10-|
---------------------------------------|

submitted by dION (kantongerecht@hotmail.com)
Comments