Doors - People Are Strange Chords & Tabs

 

People Are Strange Chords & Tabs

Doors Chords & Tabs

Version: 5 Type: Tab 0 ratings
1 star 2 stars 3 stars 4 stars 5 stars
comments

People Are Strange Tab

Solo
-------------------------------------------15-------------------------------|
-----------------------------/12---------------12-15------------------------|
-14b-14p12p0-----------------------------------------14bh14-12--14-12----12-|
-------------14p12p0-------------14bh14-12----------------------------14----|
---------------------12b--14------------------------------------------------|
----------------------------------------------------------------------------|


-----------------------------------------------------------------------------|
-----------------------------------------------------------------------------|
-----------------------------------------------------------------------------|
-14b-14b-14-12-12h14p12h-----------------------------------------------------|
-----------------------h14--12b-12b-12-10-10h12p12h---12b-12b-12-10----------|
--------------------------------------------------h12---------------12-10-12-|
[ Tab from: http://www.guitartabs.cc/tabs/d/doors/people_are_strange_tab_ver_5.html ]
Comments