Doors - People Are Strange Chords & Tabs

 

People Are Strange Chords & Tabs

Doors Chords & Tabs

Version: 1 Type: Tab 3 ratings
1 star 2 stars 3 stars 4 stars 5 stars
comments

People Are Strange Tab

   
BAND:THE DOORS 
SONG:PEOPLE ARE STRANGE 
CD:STRANGE DAYS
NUMBER:7


INTRO:                                VERSE: 
[ Tab from: http://www.guitartabs.cc/tabs/d/doors/people_are_strange_tab.html ]
E------------------------|-------------------------------------------------------------------------------------------------------------
B------------------------|-------------------------------------------------------------------------------------------------------------
G------------------------|-------------------0---------------------------------2----0----------------------------------2------------0--
D------------------------|---------------2--------2-----------------------2----------------2---------------------2-----------2--------
A----2----0-------------|----------2------------------2---1--------0--------------------------2---1-----0------------------2--------
E------------------3-----|------0-------------------------------------------------------------------------------------------------------
                                    form EM                             form EM on              form EM                form EM
                                                                                             1 string lower 
E--------------------------------------------------------
B--------------------------------------------------------
G--------------------------------------------------------
D------------------------------------1-------------------
A----0h1h2p0-------------2-------------------------------
E-----------------------2-----------------0--------------
                         here form an E 


THE CHORUS IS:
B7     G      B   

X21202  330033    X24422


Comments