Doors - Love Street Chords & Tabs

 

Love Street Chords & Tabs

Doors Chords & Tabs

Version: 2 Type: Tab 0 ratings
1 star 2 stars 3 stars 4 stars 5 stars
comments

Love Street Tab

   
Verse: 
[ Tab from: http://www.guitartabs.cc/tabs/d/doors/love_street_tab_ver_2.html ]
Am      G     Gm      F         Am      G      Gm       
e|-5-7-5--3-----3-3-5-3-1------|-5-7-5--3-----3--3-3-5-3-1----1---|
B|-5------3-----3-------1------|-5------3----3---3-------1---1----|
G|-5------4--4--3-------2--2---|-5------4--4-----3-------2-2------|
D|-----------------------------|----------------------------------|
A|-----------------------------||------------------------||
E|-----------------------------|----------------------------------|
  Gm     Am    Bb     F  Gm     F    Bb     A
e|-3-----5---5--6---6-1---3--3--1-----6--6--5--|---------|
B|-3--3--5--5---6---6-1---3--3--1--1--6-----5--|---------|
G|-3-----5------7-7---2---3-----2-----7-----6--|-6-----6-|
D|---------------------------------------------|---5-7---|
A|---------------------------------------------|---------|
E|---------------------------------------------|---------|

-"Will"
Comments