Doors - Light My Fire Chords & Tabs

 

Light My Fire Chords & Tabs

Doors Chords & Tabs

Version: 7 Type: Tab

Light My Fire Tab

                    Light My Fire (Solo) (Robby Krieger)
                              The Doors
                        Guitar And Keyboard Solo

This is the bass line for the solo
|--------------------------------|--------------------------------|
|--------------------------------|--------------------------------|
|--------------------------------|--------------------------------|
|------2-----0-4-------2-----0-4-|------2-----0-4-------2-----0-4-|
|-0--3----2-------0--3----2------|-0--3----2-------0--3----2------|
|--------------------------------|--------------------------------|

Keyboard Solo (01:06):
|---5---7-7-7--5---5-7--7-7----5---7-7-7--5---5-7--7-7-|
|---5---7-7-7--5---5-7--7-7----5---7-7-7--5---5-7--7-7-|
|------------------------------------------------------|
|-7---7----------7-----------7---7----------7----------|
|------------------------------------------------------|
|------------------------------------------------------|

|-5h7--5h7--5h7-5h7-5h7---5h7p5----5------------------------5-----5---|
|-------------------------------8----8-7-8--7h8p7p5-7-5h7h8---7h8---8-|
|---------------------------------------------------------------------|
|---------------------------------------------------------------------|
|---------------------------------------------------------------------|
|---------------------------------------------------------------------|

|-5h7--5h7--5h7-5h7-5h7---8-7h8p7p5-7-5---5-7-5-----------5-|
|---------------------------------------8-------8-7-5-7-8---|
|-----------------------------------------------------------|
|-----------------------------------------------------------|
|-----------------------------------------------------------|
|-----------------------------------------------------------|

|-7--5-7--5-7--5-7--5-7--5-7-8-7h8p7p5-7--5-7--5-7--5-7--5-|
|----------------------------------------------------------|
|----------------------------------------------------------|
|----------------------------------------------------------|
|----------------------------------------------------------|
|----------------------------------------------------------|

|-10-p8p7\5-7-5h7p5---5---10-p8----7-----7----7-10----7-|
|-------------------8---8-------10----10---10------10---|
|-------------------------------------------------------|
|-------------------------------------------------------|
|-------------------------------------------------------|
|-------------------------------------------------------|

|-7-10-p8p7----7------7------7------7------7-----7-|
|-----------10---8h10---8h10---8h10---8-10---10----|
|--------------------------------------------------|
|--------------------------------------------------|
|--------------------------------------------------|
|--------------------------------------------------|

|-12-----10-12-----12-10----12----10-12----10-12-|
|-----12--------12-------12----12-------12-------|
|------------------------------------------------|
|------------------------------------------------|
|------------------------------------------------|
|------------------------------------------------|

|-12-----12----10-12----10-12----10-12----------12-|
|-----12----12-------12-------12-------12-12h15----|
|--------------------------------------------------|
|--------------------------------------------------|
|--------------------------------------------------|
|--------------------------------------------------|

|-----10h12-----10h12-----10h12-----10h12--|
|-12--------10------------------10------10-|
|---------------------12------------12-----|
|------------------------------------------|
|------------------------------------------|

|----10h12----10h12----10h12----10h12----|
|-12-------10----------------10-------12-|
|-------------------12-------------------|
|----------------------------------------|
|----------------------------------------|
|----------------------------------------|

|-14-14------12----14-12-14-12-14----12-14-14-14------12-14-14----12-14-|
|---------15----15----------------15---------------15----------15-------|
|-----------------------------------------------------------------------|
|-----------------------------------------------------------------------|
|-----------------------------------------------------------------------|
|-----------------------------------------------------------------------|

|----12-14-----12-14-----12-14----12-14----12-14--14p12-14p12----12-|
|-15--------15--------15-------15-------15--------------------15----|
|-------------------------------------------------------------------|
|-------------------------------------------------------------------|
|-------------------------------------------------------------------|
|-------------------------------------------------------------------|

|-17-17--15h17-15-14-15-14-15-17-----15----17-17--15h17-15----15-17-|
|---------------------------------17----17-----------------17-------|
|-------------------------------------------------------------------|
|-------------------------------------------------------------------|
|-------------------------------------------------------------------|
|-------------------------------------------------------------------|

|----15----17-17------15----15----15-17--19-17-15-|
|-17----17---------17----17----17-----------------|
|-------------------------------------------------|
|-------------------------------------------------|
|-------------------------------------------------|
|-------------------------------------------------|

|-19-17-15-19-17-15-19-17-15-14-15-17--12-12--14-14--12----12--14-14-|
|--------------------------------------12-12--14-14--12-15-12--14-14-|
|--------------------------------------------------------------------|
|--------------------------------------------------------------------|
|--------------------------------------------------------------------|
|--------------------------------------------------------------------|

|-12-12--14-14--12-12--14-14--12-12--14-14--12-12--14-14-|
|-12-12--14-14--12-12--14-14--12-12--14-14--12-12--14-14-|
|--------------------------------------------------------|
|--------------------------------------------------------|
|--------------------------------------------------------|
|--------------------------------------------------------|

|-19-17-15-------------------------------------------------------------|
|----------19-17-15-17--15-17-15-17--13-15-13-15-13-15--10-12-10-12-10-|
|----------------------------------------------------------------------|
|----------------------------------------------------------------------|
|----------------------------------------------------------------------|
|----------------------------------------------------------------------|

|------------------------------------------------------------------|
|-12--10--------10-12-10----10-12----10-12----10-12----10-12-10----|
|--------12--12----------12-------12-------12-------12----------12-|
|------------------------------------------------------------------|
|------------------------------------------------------------------|
|------------------------------------------------------------------|

|-------------------------10-----------------------------------|
|-------10-------10----------13-12-10--------------10-------10-|
|-11-12----11-12----11-12-------------12-11--11-12----11-12----|
|--------------------------------------------------------------|
|--------------------------------------------------------------|
|--------------------------------------------------------------|
[ Tab from: http://www.guitartabs.cc/tabs/d/doors/light_my_fire_tab_ver_7.html ]
|-10-----------------10-----------------------------------------|
|----13-12-10-----------13-12-10--------------10----------------|
|-------------12-11--------------12-11--11-12----12-11-9--------|
|--------------------------------------------------------7------|
|---------------------------------------------------------------|
|---------------------------------------------------------------|

|----------------------------------7--------7-7-|
|-8p7-------------8p7---------10---7---10---7-7-|
|-----9-7-------------9-7-----9--------9--------|
|---------10-7------------7-7----7---7----7-----|
|-----------------------------------------------|
|-----------------------------------------------|



Guitar Solo (03:18):
|---5-7---8-7h8p7p5---5-----7h8p7p5---5-----------------|
|-8-----------------8-----8---------8-------7h8p7p5---5-|
|-----------------------------------------7---------7---|
|-------------------------------------------------------|
|-------------------------------------------------------|
|-------------------------------------------------------|

|---5-7---8-7h8p7p5--------------------------|
|-8-----------------8---7h8p7p5--------------|
|-------------------------------7--5h7p5p4---|
|------------------------------------------7-|
|--------------------------------------------|
|--------------------------------------------|

|-------------5h7-----------------5h7----|
|-------5h7h8-----7---------5h7h8-----7--|
|-4h5h7---------------4h5h7--------------|
|----------------------------------------|
|----------------------------------------|
|----------------------------------------|

|-------5---5-7-7p5----5----------------------5-------------|
|---------7---------7----7------------------5---7-----------|
|-4h5h7--------------------7-9--7h9p7p5---5---------5-7---5-|
|---------------------------------------7---------------7---|
|-----------------------------------------------------------|
|-----------------------------------------------------------|

|-8-5--8-5--5/17----8-5--8-5--5\----8-5--8-5--5/17-|
|-8-5--8-5--5/17----8-5--8-5--5\----8-5--8-5--5/17-|
|--------------------------------------------------|
|--------------------------------------------------|
|--------------------------------------------------|
|--------------------------------------------------|

|-8-5--8-5--5\3-3-3/5-5\3-3/5-5--5-------------------------------|
|-8-5--8-5--5\3-3-3/5-5\3-3/5-5--5----5--6--8--6h8-6-5-----------|
|------------------------------------------------------5h7p5p4---|
|--------------------------------------------------------------7-|
|----------------------------------------------------------------|
|----------------------------------------------------------------|

|------------------------------------------|
|------------------------------------------|
|------------------------------------------|
|-5h7p5----5h7p5p4----5h7p5p4----5h7p5p4---|
|-------7----------7----------7----------7-|
|------------------------------------------|

|-5-7--5-------------------5-7-8--/10--/12-|
|--------7---5---------5-7-----------------|
|---------------7--5-7---------------------|
|------------------------------------------|
|------------------------------------------|
|------------------------------------------|

|-12--13--15--15p13p12-----------------------------------|
|----------------------15-13-12-15-13--15p13p12----------|
|-----------------------------------------------14-12-14-|
|--------------------------------------------------------|
|--------------------------------------------------------|
|--------------------------------------------------------|

|---------------------------------12-13-15--13h15p13p12----|
|-13h15p13p12-----13h15p13p12---------------------------15-|
|-------------14--------------14---------------------------|
|----------------------------------------------------------|
|----------------------------------------------------------|
|----------------------------------------------------------|

|----------------------------12--13-15--13h15p13p12-------------------------|
|-12--13-15--13h15p13p12----------------------------15-13h15p13p12----------|
|------------------------15----------------------------------------14-12-14-|
|---------------------------------------------------------------------------|
|---------------------------------------------------------------------------|
|---------------------------------------------------------------------------|

|-12-/17--17\---/17--17\---17h19-17h9-17----------17----------17-------|
|----------------------------------------19-17h19----19-17h19----19-17-|
|----------------------------------------------------------------------|
|----------------------------------------------------------------------|
|----------------------------------------------------------------------|
|----------------------------------------------------------------------|

|-17h19-17h19-17----17----17----------17h19-17h19-17-------17-------17-|
|----------------19----19----19-17h19----------------17h19----17h19----|
|----------------------------------------------------------------------|
|----------------------------------------------------------------------|
|----------------------------------------------------------------------|
|----------------------------------------------------------------------|

|-------17-----17-21-17-----17----|
|-17h19-----17----------19-----19-|
|---------------------------------|
|---------------------------------|
|---------------------------------|
|---------------------------------|

|-5-------5-----5-7-8-7h8p7p5---7-----5-7h8p7p5----------------|
|----5\3------8---------------8-----8-----------8--7h8p7p5---5-|
|----4\2---------------------------------------------------7---|
|--------------------------------------------------------------|
|--------------------------------------------------------------|
|--------------------------------------------------------------|

|---5-7--8-7h8p7p5-------------------------------------|
|-8----------------8-8---8--7h8p7p5---5--8-7h8p7p5---5-|
|-----------------------------------7--------------7---|
|------------------------------------------------------|
|------------------------------------------------------|
|------------------------------------------------------|

|---5--7--8--7h8p7p5-----5----------5----------5-----------|
|-8------------------7-----8p7p5------8p7p5------7h8p7p5---|
|--------------------------------7----------7------------7-|
|----------------------------------------------------------|
|----------------------------------------------------------|
|----------------------------------------------------------|

|-----7-5---5---5-----7------5-------|
|-5-8-----8---7-----5---5--8---7-8---|
|-----------------7----------------7-|
|------------------------------------|
|------------------------------------|
|------------------------------------|

|---------------------------------------------------------------------|
|---------------------------------------------------------------------|
|-7b9-7b9-7b9-7b9b7-5----7b9-7b9-7b9-7b9b7-5----7b9-7b9-7b9-7b9b7-5---|
|---------------------7----------------------7----------------------7-|
|---------------------------------------------------------------------|
|---------------------------------------------------------------------|

|-------------------------------------------------------------------------|
|-8b10-8b10-8b10-8b10b8-5--8b10-8b10-8b10-8b10b8-5------------------------|
|---------------------------------------------------7b9-7b9-7b9-7b9b7-5---|
|-----------------------------------------------------------------------7-|
|-------------------------------------------------------------------------|
|-------------------------------------------------------------------------|

|-----------------------------------5-8-7-5-------|
|-----5-7-5-----------------5-7-8-7---------8-7-5-|
|-5-7-------7-7-5-7-5-7-5-7-----------------------|
|-------------------------------------------------|
|-------------------------------------------------|
|-------------------------------------------------|
End Of Solos