Doors - Light My Fire Chords & Tabs

 

Light My Fire Chords & Tabs

Doors Chords & Tabs

Version: 6 Type: Tab 0 ratings
1 star 2 stars 3 stars 4 stars 5 stars
comments

Light My Fire Tab

|9---------6---9---7---6------------7---------4---7---5---4-----------5-------|
|----7h9-------------------9---7--------5h7-------------------7---5-------3h5-|
|-----------------------------------------------------------------------------|
|-----------------------------------------------------------------------------|
|-----------------------------------------------------------------------------|
|-----------------------------------------------------------------------------|
[ Tab from: http://www.guitartabs.cc/tabs/d/doors/light_my_fire_tab_ver_6.html ]
|2---5---3---2----------------------------------------------------------------|
|----------------5---3---5~~~~------------------------------------------------|
|-----------------------------------------------------------------------------|
|-----------------------------------------------------------------------------|
|-----------------------------------------------------------------------------|
|-----------------------------------------------------------------------------|

This is just the basic riff that I sorted out, it's a great speed exercise too, it 
good and it's a fun intro to the song.

Peace, Matt Garozzo. (royjones_the3rd@hotmail.com)
Comments