Doors - Light My Fire Chords & Tabs

 

Light My Fire Chords & Tabs

Doors Chords & Tabs

Version: 1 Type: Bass Tab 0 ratings
1 star 2 stars 3 stars 4 stars 5 stars
comments

Light My Fire Bass Tab

Light My Fire - The Doors

This is correct but the studio recording makes it all sound a half step lower.

  intro
G|--------|--------|----------|----2-2--|----2-2--|
D|--------|------03|-1------2-|---2-2-2-|---2-2-2-|
A|--255--0|--031---|----1--3--|--4------|--4------|
E|3-----1-|1-------|---3-4----|5--------|55-------|

  verse
G|------------|------------|
D|--5---2---2-|--2---------|
A|----5---3---|------4---3-|
E|5-----------|1---5---5---|
[ Tab from: http://www.guitartabs.cc/tabs/d/doors/light_my_fire_btab.html ]
  refrain "come baby light my fire"
G|----------|-------|----------|--------|----------|---------------|
D|-------2--|-------|-------2--|-----14-|----------|--2-2-----2--2-|
A|--25--4-5-|-0-0-0-|--25--4-5-|--0-2---|--255--0--|-2-2-----2--2--|
E|3---5-----|1---0--|3---5-----|1-------|3-----1-0-|4-----0-4--3---|

  solo         last 8 times
G|------------|--------|
D|----2-----4-|--------|
A|--3---2-5---|--------|
E|5-----------|5---7---|

Transcribed by Thomas Breuss 

Comments