Doors - Indian Summer Chords & Tabs

 

Indian Summer Chords & Tabs

Doors Chords & Tabs

Version: 2 Type: Tab 0 ratings
1 star 2 stars 3 stars 4 stars 5 stars
comments

Indian Summer Tab

   
-------------------------------------------------------------------------------
			     SONG NAME - Band Name
-------------------------------------------------------------------------------
Tabbed by: nick italian stallion
Email:xhiloverx

Tuning: standard

e|-7----------------------------------------------------5----2-----0-----------|
B|-7------------------------------------------------------------------2---2----|
G|-7---------------7---------7----------7---------7---------------------2------|
D|-9-----------7----------7---------7----------7-------------------------------|
A|-9------9------------9---------9---------9-----------------------------------|
E|-7---------------------------------------------------------------------------|

e|-------------------------------5----2----0-----------------------------------|
B|-2\5--2/3---2-3-------3------------------------3-------3-----2--3---3\5------|
G|------------------2--------------------------------2-------------------------|
D|-----------------------------------------------------------------------------|
A|-----------------------------------------------------------------------------|
E|-----------------------------------------------------------------------------|

e|-------------------------------------5--2-----0------------------------------|
B|--3\5----3/2\5----2--3--------3------------------3-----------3---2---3-------|
G|-------------------------2----------------------------2----------------------|
D|-----------------------------------------------------------------------------|
A|-----------------------------------------------------------------------------|
E|-----------------------------------------------------------------------------|

e|---------------------------------------------------5---2-----0---------------|
B|----3\5---3/2\5-----2--3-------3-----2---3------------------------3------3---|
G|--------------------------2-------------------------------------------2------|
D|-----------------------------------------------------------------------------|
A|-----------------------------------------------------------------------------|
E|-----------------------------------------------------------------------------|
[ Tab from: http://www.guitartabs.cc/tabs/d/doors/indian_summer_tab_ver_2.html ]
e|------------------------------------------------5-----2------0---------------|
B|--2---3--------3---2----3------3----2----3----------------------3-------3----|
G|----------2----------------2----------------------------------------2--------|
D|-----------------------------------------------------------------------------|
A|-----------------------------------------------------------------------------|
E|-----------------------------------------------------------------------------|
something like this but not quite sure figuer it out yourself
e|-----------------------------------------------------------------------------|
B|--2--3------3----------------------------------------------------------------|
G|---------2------------7-7---9---------7--9---------7--9--------7-7--9--------|
D|--------------[-7-7------------7---9--------7--9---------7--7----------------|
A|-----------------------------------------------------------------------------|
E|-----------------------------------------------------------------------------|

e|--------------------------------10----10---9--10----9---10--7---10---10------|
B|-------------------------------------------------------------------10---10---|
G|---------7---------7--]------------------------------------------------------|
D|--7---9-----7--9-------------------------------------------------------------|
A|-----------------------------------------------------------------------------|
E|-----------------------------------------------------------------------------|

e|-----10---10------10-------------------------------10----10----------------|
B|-9-----10-----9----------------------------7---------10--------------------|
G|----------------------------------7----9-----------------------------------|
D|--------------------------7---9------------------------------7--9-------7--|
A|-----------------------9-----------------------------------------7--9------|
E|---------------------------------------------------------------------------|


e|-----------------------------------10------10--------------------------------|
B|---------------------------------------10------------------------------------|
G|-------------7--9----7-9------7----------------------------------------------|
D|-----7---9-----------------9-------------------------------------------------|
A|--9--------------------------------------------------------------------------|
E|-----------------------------------------------------------------------------|
repeat the  [  ] part still not sure if its right than play
e|-------------------5---2--0------------------------------------------------|
B|-----3-----2-3---------------3------3---2-3------3----2-3-----3-----2-3----|
G|--2------------------------------2------------2-------------2--------------|
D|---------------------------------------------------------------------------|
A|---------------------------------------------------------------------------|
E|---------------------------------------------------------------------------|

e|----3-----5-----3--3-------3/2------5----2----0----------------------------|
B|--------------------------------------------------2-----2-----2\3----------|
G|----------------------------------------------------2----------------------|
D|---------------------------------------------------------------------------|
A|---------------------------------------------------------------------------|
E|---------------------------------------------------------------------------|

p.s germans are horny


| /  slide up
| \  slide down
| h  hammer-on
| p  pull-off
| ~  vibrato
| +  harmonic
| x  Mute note
===================================================================
===================================================================
Comments