Doors - Hello I Love You Chords & Tabs

 

Hello I Love You Chords & Tabs

Doors Chords & Tabs

Version: 4 Type: Tab 0 ratings
1 star 2 stars 3 stars 4 stars 5 stars
comments

Hello I Love You Tab

   
----------------------------------------------------------------------------
			     Hello, I Love You - The Doors
----------------------------------------------------------------------------

Tabbed by: Gitar07
Email: nickwun07@msn.com

Tuning: E A D G B E

A5      G       D5 
E|X     E|3     E|X
B|X     B|0     B|3
G|2     G|0     G|2
D|2     D|0     D|0
A|0     A|2     A|X
E|X     E|3     E|X


CHORUS
          A5       G                    A5                D5
  
    Hel - lo  I   love you, won't you   tell me your name?__      Hel -
e|------------------------------------|------------------------------------|
B|------------------------------------|-1----1--1----1---------------------|
G|--2-----2---2---0----0----0-----0---|-----------------2---------2--------|
D|------------------------------------|------------------------------------|
A|------------------------------------|------------------------------------|
E|------------------------------------|------------------------------------|

   A5         G                       A5                 D5

   lo,   I   love you,  let  me      jump  in  your game.__       Hel -
e|--------------------------------|----------------------------------------|
B|--------------------------------|--1-----1---1---------------------------|
G|-2-----2---0----0-----0----0----|-----------------2-------------2--------|
D|--------------------------------|----------------------------------------|
A|--------------------------------|----------------------------------------|
E|--------------------------------|----------------------------------------|

    A5         G                       A5                D5

    lo,  I    love  you,  won't you    tell me your name?__      Hel-
   
e|----------------------------------|--------------------------------------|
B|----------------------------------|--1----1--1---------------------------|
G|--2----2----0-----0-----0-----0---|---------------2------------2---------|
D|----------------------------------|--------------------------------------|
A|----------------------------------|--------------------------------------|
E|----------------------------------|--------------------------------------|

    A5         G                       A5                D5

    lo,  I    love   you, let   me     jump in your game.__      She's
[ Tab from: http://www.guitartabs.cc/tabs/d/doors/hello_i_love_you_tab_ver_4.html ]
e|----------------------------------|--------------------------------------|
B|----------------------------------|--1----1--1---------------------------|
G|--2----2----0-----0-----0-----0---|---------------2----------------------|
D|----------------------------------|----------------------------2---------|
A|----------------------------------|--------------------------------------|
E|----------------------------------|--------------------------------------|


VERSE

   A5          G             A5           G    A5          G       

   Walk - in'  down  the     Street,_______    BLind  to  ev - 'ry

e|------------------------|------------------|-----------------------------|
B|-1------2----0----------|--1-------2-------|-1------2---0----------------|
G|-------------------2----|-------------2----|------------------2----------|
D|------------------------|------------------|-----------------------------|
A|------------------------|------------------|-----------------------------|
E|------------------------|------------------|-----------------------------|

   A5                 G5                  A5                 G5

   eye   she   meets.____    Do  you      think    you'll    be   the

e|-------------------------------------|-----------------------------------|
B|-1-----2-----------------------------|--1--------2---------0----2--------|
G|-------------2-----------------------|-----------------------------------|
D|---------------------------2---2-----|-----------------------------------|
A|-------------------------------------|-----------------------------------|
E|-------------------------------------|-----------------------------------|

   A5                 G              A5             G
   
   guy___________________  to        make    the    queen    of    the

e|---------------------------------|---------------------------------------|
B|-1--------2----------------------|-1-------2------0--------0-------------|
G|---------------2-----------------|-------------------------------2-------|
D|--------------------------2------|---------------------------------------|
A|---------------------------------|---------------------------------------|
E|---------------------------------|---------------------------------------|

    A5            G

    an  -  gels   sigh?

e|-----------------------|
B|--1------2-------------|
G|----------------2------|
D|-----------------------|
A|-----------------------|
E|-----------------------|


OUTRO

   A5         G      A5          G     A5          G     A5

   Hel - lo          hel - lo          hel - lo          hel - lo  
  
e|-0-----0----3------0-----0-----3-----0-----0-----3-----0-----0-----3-----|
B|------------0------------------0-----------------0-----------------0-----|
G|------------0------------------0-----------------0-----------------0-----|
D|-------------------------------------------------------------------------|
A|-------------------------------------------------------------------------|
E|-------------------------------------------------------------------------|
Comments