Doors - End Of The Night Chords & Tabs

 

End Of The Night Chords & Tabs

Doors Chords & Tabs

Version: 1 Type: Tab 0 ratings
1 star 2 stars 3 stars 4 stars 5 stars
comments

End Of The Night Tab

   
The Doors 
End of the Night (The Doors 1967)
Tabbed by Brett Mahoney

Intro: 
    Em                          D D#M Em Em
E|--7---------------------|-----5--6--7---7------------|
B|---8--------------------|-----7--7--8----8-----------|
G|----9-------------------|-----7--8--9-----9----------|
D|-----9------------------|-----7--8--9------9---------|
A|------7-----------------|-----5--6--7-------7--------|
E|------------------------|----------------------------|

Verse:
      Take the highway to the end of the night
E|-7-7-7-7-7-7-7-7-7-7-7-7|-7-7-7-7-7-7-7-7-7-7-7-7-7-7|
B|-8-8-8-8-8-8-8-8-8-8-8-8|-8-8-8-8-8-8-8-8-8-8-8-8-8-8|
G|-9-9-9-9-9-9-9-9-9-9-9-9|-9-9-9-9-9-9-9-9-9-9-9-9-9-9|
D|-9-9-9-9-9-9-9-9-9-9-9-9|-9-9-9-9-9-9-9-9-9-9-9-9-9-9|
A|-7-7-7-7-7-7-7-7-7-7-7-7|-7-7-7-7-7-7-7-7-7-7-7-7-7-7|
E|------------------------|----------------------------|
[ Tab from: http://www.guitartabs.cc/tabs/d/doors/end_of_the_night_tab.html ]
  End of the night,          
E|5------6---7-----7------------|
B|7------7---8------8-----------|
G|7------8---9-------9----------|
D|7------8---9--------9---------|
A|5------6---7---------7--------|
E|------------------------------|
  
  
E|5------6---7-----7------------|
B|7------7---8------8-----------|
G|7------8---9-------9----------|
D|7------8---9--------9---------|
A|5------6---7---------7--------|
E|------------------------------|


Chorus: use Em: 000220


End of the night,          
E|5------6---7-----7------------|
B|7------7---8------8-----------|
G|7------8---9-------9----------|
D|7------8---9--------9---------|
A|5------6---7---------7--------|
E|------------------------------|
  

E|5------6---7-----7------------|
B|7------7---8------8-----------|
G|7------8---9-------9----------|
D|7------8---9--------9---------|
A|5------6---7---------7--------|
E|------------------------------|
Comments