Doors - Cars Hiss By My Window Chords & Tabs

 

Cars Hiss By My Window Chords & Tabs

Doors Chords & Tabs

Version: 1 Type: Tab 0 ratings
1 star 2 stars 3 stars 4 stars 5 stars
comments

Cars Hiss By My Window Tab

Tabbed By:Austin C.      Cars Hiss By My Window     The Doors

E:|------------------------------------------------|
B:|------------------------------------------------|
G:|-------------------2--1--------------------2--1-|
D:|----0h1h2----------2--2-----0h1h2----------2--2-|
A:|-2-----------------2--2--2-----------------2--2-|
E:|-------------0--0--0--0--------------0--0--0----|
[ Tab from: http://www.guitartabs.cc/tabs/d/doors/cars_hiss_by_my_window_tab.html ]
E:|-------------------2--0--------------------2--0-|
B:|-------------------3--2--------------------3--2-|
G:|----0h1h2-------------------0h1h2---------------|
D:|-2-----------------------2----------------------|
A:|-------------0--0--------------------0--0-------|
E:|------------------------------------------------|

E:|-2--4-3-2------------3-0-----------------------------------|
B:|-----------4-3-2-------------------------------------------|
G:|------------------2-------2--0h1---------------------------|
D:|----------------------------------0h2-0h2-0h2--0---0-------|
A:|-------------------------------------------------2---0-----|
E:|-------------------------------------------------------3--0|

E:|------------------------------------------------|
B:|------------------------------------------------|
G:|------------------------------------------------|
D:|-2--------------0h1----0h1h2--------------------|
A:|---------0h1h2------2---------------------------|
E:|------0-----------------------------------------|
Comments