Doobie Brothers - Listen To The Music Chords & Tabs

 

Listen To The Music Chords & Tabs

Doobie Brothers Chords & Tabs

Version: 1 Type: Tab 3 ratings
1 star 2 stars 3 stars 4 stars 5 stars
comments

Listen To The Music Tab

Listen to the Music
Doobie Brothers
Transcribed by Tyler Hartley

Tuning is ordinary.

Intro:
e--------------------------------
B------9--9-------9--9---10--9---
G--9------9---9------9---9---9---
D--9------9---9------9---11--9---
A—-9>11---11--9>11---11--9---11--
E--------------------------------

I suggest playing the 9th fret with a first finger bar and 
hammering on with the third finger.

Verse: same as Intro but add open E string in bass until:

“People, gettin’ ready for the news”
e---------------------------------9------
B------9--9-------9--9---10--9----9------
G--9------9---9------9---9---9----9------
D--9------9---9------9---11--9----11-----
A—-9>11---11--9>11---11--9---11---11-----
E--0------0---0------0-------0----9------
[ Tab from: http://www.guitartabs.cc/tabs/d/doobie_brothers/listen_to_the_music_tab.html ]
“Some are happy…”     “let the music play…” 
e--7---5---5--        ------------...
B--7---5---5--        -----9--9---...
G--8---6>7-6-- Intro: -9------9---...
D--9---7---7--        -9------9---...
A--9---7---7--        -9>11---11--...
E--7---5---5--        -0------0---...

Chorus:

“Whoa ooh whoa…” “all the time”
e--4--5-------------2---5----     
B--5--5-------------2---5----
G--6--6--3x---------3---6---- Which then goes back to verse
D--6--7-------------4---7----
A--4--7-------------4---7----
E-----5-------------2---5----

The only untabbed part of the song is the bridge. 
You should be able to figure out the rest of the song from 
the tab above.

Bridge:

“Like a lazy…”
e--0---2---0-------
B--0---3---2-------
G--1---2---2--2x---  Then repeats to chorus. 
D--2---0---2-------
A--2-------0-------
E--0---------------

Comments