Doobie Brothers - China Grove Chords & Tabs

 

China Grove Chords & Tabs

Doobie Brothers Chords & Tabs

Version: 1 Type: Tab 2 ratings
1 star 2 stars 3 stars 4 stars 5 stars
comments

China Grove Tab

China Grove by: The Doobie Brothers
   Rhy  fig.1

E-|-----------------------|-----------------------|
B-|-----------------------|-----------------------|
G-|--9--9----------------|--9--9----------------|
D-|--9--9----x-----x-----|--9--9----x-----x-----|
A-|--7--7----x-----x-----|--7--7----x-----x-----|
E-|--------------0-----0--|--------------0-----0--|
                 m     m                 m     m
                                  end fig.1 3 and 3/4 times
E-|-------------------------|----------------------|
B-|-------------------------|----------------------|
G-|--7-------6--------2-----|--------9--9----------|
D-|--7-------6--------2-----|--------9--9----------|
A-|--5-------4--------0-----|--------7--7----------|
E-|-------0--------0-----0--|--0--0--------7h9--0--|

1st verse with fig.1 twice


   Rhy fig.2
E-|---------------------|--------------------|-------------------------|
B-|---------------------|--------------------|-------------------------|
G-|-----------9--9------|--------------------|-------------------------|
D-|-11--11---11--9---9--|--x--9----9---------|-------------------------|
A-|-11--11-----------9--|--x--9----9---------|--7--7--7--7--7--8--9-10-|
E-|--9---9--------x--7--|--x--7----7---0--0--|--5--5--5--5--5--6--7--8-|


                end fig.2
E-|-----------------------|
B-|-----------------------|
G-|-----------------------|
D-|-----------7-----7-----|
A-|-----------7-----7-----|
E-|--0--7--9-----9-----0--|


Chorus
   Rhy fig.3
E-|----------------------|----------------------|------------------|
B-|----------------------|----------------------|------------------|
G-|--9--9----------------|--7--7----------------|--9---------------|
D-|--9--9----x-----x-----|--7--7---7------------|--9--------6------|
A-|--7--7----x-----x-----|--5--5---4---4--7-----|--7--7--9---------|
E-|-------------0-----0--|-------------------0--|------------------|


E-|----------------------|-----------------|-----------------------|
B-|----------------------|-----------------|-----------------------|
G-|--7--7-------------9--|-----------------|--7--7-----------------|
D-|--7--7---7---------9--|----------6------|--7--7---7-------------|
A-|--5--5---4---------7--|----7--9---------|--5--5---4-------------|
E-|-------------0--0-----|-----------------|--------------0--0--0--|


                    end fig.3
E-|--------------------------|-----------------------|
B-|--------------------------|-----------------------|
G-|--------------9--9--9--9--|--9--------------------|
D-|--------9--9--9--9--9--9--|--9--------------------|
A-|--------7--7--7--7--7--7--|--7--------------7-----|
E-|--0--0--0--0--0--0--0--0--|--0---------7h9-----0--|

2nd verse with fig.1 twice
fig.2

Chorus with fig.3

Solo
[ Tab from: http://www.guitartabs.cc/tabs/d/doobie_brothers/china_grove_tab.html ]
E-|-----------------|-------|-------|-------|--------------------------|
B-|-----------------|-------|-------|-------|--------------------------|
G-|-----------------|-------|--.----|--.----|--------9--9------11-----9|
D-|--------------9--|--(9)--|---/---|---/---|--9h11--------11------9-11|
A-|--------9h11-----|-------|----.--|----.--|--------------------------|
E-|-----------------|-------|-------|-------|--------------------------|

E-|-------------------------|-------------|---------------------------|
B-|-------------------------|-------------|---------------------------|
G-|--11b13---11b13---11b13--|--11--9---9--|--11b14--11b13---9------9--|
D-|-------------------------|-------------|-------------------11------|
A-|-------------------------|-------------|---------------------------|
E-|-------------------------|-------------|---------------------------|


E-|------------------|---------------------------|------------------12-|
B-|-----------12b14--|--12--12b14-----12---------|---------------------|
G-|------------------|--------------------11b13--|--11p9--9-9--11b13---|
D-|--11--------------|---------------------------|--------11-----------|
A-|------------------|---------------------------|---------------------|
E-|------------------|---------------------------|---------------------|


E-|----------12----------------------|----------------12-----|
B-|----------------------------------|-------------12----15--|
G-|--11b13-------11b13r11--9------9--|----11---/13-----------|
D-|---------------------------11-----|-----------------------|
A-|----------------------------------|-----------------------|
E-|----------------------------------|-----------------------|


E-|-------------|------------------12---------|--12-----15b17----15--15b17--|
B-|----15---15--|--15--15--15--15------12h15--|-----12----------------------|
G-|-------------|-----------------------------|-----------------------------|
D-|-------------|-----------------------------|-----------------------------|
A-|-------------|-----------------------------|-----------------------------|
E-|-------------|-----------------------------|-----------------------------|


E-|--15--15b17--15--15b17--12------12---------|------------------------|
B-|----------------------------15------15b17--|-15--15b17---15--15b17--|
G-|-------------------------------------------|------------------------|
D-|-------------------------------------------|------------------------|
A-|-------------------------------------------|------------------------|
E-|-------------------------------------------|------------------------|


E-|-------------------------------|-------------------------12------|
B-|--15b17--15--15b17-----15--12--|--15--14--12---------12------12--|
G-|-------------------------------|--------------12/13--------------|
D-|-------------------------------|---------------------------------|
A-|-------------------------------|---------------------------------|
E-|-------------------------------|---------------------------------|


E-|------------------------------|-------------------------------------|
B-|--15--12----------------------|-------------------------------------|
G-|----------14b16--12b14--------|-------------------------------------|
D-|-------------------------14--|-------------------------------------|
A-|------------------------------|-------------------------------------|
E-|------------------------------|-------------------------------------|
Comments