Doobie Brothers - Black Water Chords & Tabs

 

Black Water Chords & Tabs

Doobie Brothers Chords & Tabs

Version: 2 Type: Tab 0 ratings
1 star 2 stars 3 stars 4 stars 5 stars
comments

Black Water Tab

The Doobie Brothers - Black Water
(Mark Holmes)

This tab is in Double Drop-D tuning, DADGBD.

& = Rest
/ = Slide up
h = Hammer on
p = Pull off

|--------|--------0----------------0---------| Figure 1
|--------|----1----------------3-------------| --------
|-&------|----0------------0h2-2-------------| The first bar is the intro,
|-&------|----2--------------0---------------| only play that the very
|-&--1/2-|--0---0--------------------1/2-----| first time.
|--------|----------2/3--0-------0-----------|


[ Tab from: http://www.guitartabs.cc/tabs/d/doobie_brothers/black_water_tab_ver_2.html ]
|--5p0-------0----3p0---0--------|----------0---------0------|
|--------0------------5-----0----|------6---------6----------|
|--------------------------------|---------------------------|
|------0-------0------0-------0--|----8-----7---8-------0----|
|--------------------------------|---------------------------| --
|--5-------5------5-------5------|--8-----8---8-----8--------|   |
                                                                 |- Figure 2
|------2-------0---------------2-----------0-----------------|   |
|--2---2--0--0-----------------2-------0---------------------|---
|--2------0--0---0-------------2--&----0-------0-------------|
|----2-----------------------2----&----0---------------------|
|--0-------------------0h2-0------&------------------0h2-----|
|---------2--2-----2/4---------------2---2---2---2/4---------|


Figure 1 are the verses, Figure 2 is the chorus.  I will post the solo soon, once I get it all tabbed.

Thanks!  Please send any comments/suggestions to MarkA.Holmes@gmail.com

www.cssresource.org

-Mark Holmes
Comments