Dont Stop Till Monday - Always In My Head Chords & Tabs

 

Always In My Head Chords & Tabs

Dont Stop Till Monday Chords & Tabs

Version: 1 Type: Tab 0 ratings
1 star 2 stars 3 stars 4 stars 5 stars
comments

Always In My Head Tab

Artist: Don't Stop Till Monday
Song: Always on my mind
Tabbed By: J.T. 
This song is pretty cool if you are into Blink 182 and NFG!!!
P.S. Sorry Kathy can't play the triangle in Don't Stop Till Monday. JK

X= palm mute

Intro
6---------------------------------------------------------------------------
5---------------------------------------------------------------------------
4--------------------------------------------------------------------------  2x
3--7-7-7------------------------------------------------------------------
2--5-5-5---4-5-----7-7-7---4-5-----9-9-9---4-5-----5-5-5---4-5---
1------------------5-5-5-----------7-7-7-----------3-3-3----------
[ Tab from: http://www.guitartabs.cc/tabs/d/dont_stop_till_monday/always_in_my_head_tab.html ]
Verse
6---------------------------------------------------------------------------
5---------------------------------------------------------------------------
4---------------------------------------------------------------------------              
3--x-x-7--x-x-7-----------------------------------------------------------  4x
2--x-x-5--x-x-5-----x-x-7--x-x-7-----x-x-9--x-x-9-----5-5-5-5-----
1-------------------x-x-5--x-x-5-----x-x-7--x-x-7---- 3-3-3-3-----

Chorus
6---------------------------------------------------------------------------
5---------------------------------------------------------------------------
4---------------------------------------------------------------------------              
3--77777777-----------------------------------77777777----------------------            
2--55555555---77777777---99999999---55555555--55555555-777777[pause]-7-5
1-------------55555555---77777777---33333333-----------555555[pause]-5-3

Slow Part  (* let it ring for about 5 seconds)

6-------------------------------------------------------------------
5-------------------------------------------------------------------
4-------------------------------------------------------------------              
3--7-------------------------7------------------------------- ------
2--5---7--------9-----5------5-----7---------9-------55555555-------
1------5--------7-----3------------5---------7-------33333333------


Order
* Intro
* Verse 1
* Chorus
* Intro part
* Verse 2
* Chorus
* Slow part
* Intro
* Chorus
* Intro


Comments