Dont Look Down - Weak Me Chords & Tabs

 

Weak Me Chords & Tabs

Dont Look Down Chords & Tabs

Version: 1 Type: Tab 0 ratings
1 star 2 stars 3 stars 4 stars 5 stars
comments

Weak Me Tab

Dont Look Down - Weak Me
By:Andrew Mcshan(Guitarguyx182@aol.com)
Intro
e|-----------x-----------------------------------------------------|
B|-----------x-----------------------------------------------------|
G|-----------x-----------------------------------------------------|
D|-----4p0-4-x-8-8-6-6-4-6-----x4----------------------------------|
A|-4/5-----4-x-8-8-6-6-4-6-----------------------------------------|
E|---------2-x-6-6-4-4-2-4-----------------------------------------|
Verse
e|----------------------x------------------------------------------|
B|----------------------x------------------------------------------|
G|----------------------x------------------------------------------|
D|-4-4~-11-11-8-8-6-4-4-x-4-4----11-----8----6-----4----x4---------|
A|-4-4~-11-11-8-8-6-4-4-x-4-4--11--11-8--8--6-6--4--4--------------|
E|-2-2~-9--9--6-6-4-2-2-x-2-2-9------6-----4----2------------------|
Chorus
e|-----------------------------------------------------------------|
B|-----------------------------------------------------------------|
G|-6-6-6/------------6-6-10-10-8-8---------------------------------|
D|-6-6-6/6-6-4-4--X4-6-6-10-10-8-8---------------------------------|
A|-4-4-4/6-6-4-4-----4-4-8--8--6-6---------------------------------|
E|-------4-4-2-2---------------------------------------------------|
[ Tab from: http://www.guitartabs.cc/tabs/d/dont_look_down/weak_me_tab.html ]
Verse Again
e|----------------------x------------------------------------------|
B|----------------------x------------------------------------------|
G|----------------------x------------------------------------------|
D|-4-4~-11-11-8-8-6-4-4-x-4-4----11-----8----6-----4----x4---------|
A|-4-4~-11-11-8-8-6-4-4-x-4-4--11--11-8--8--6-6--4--4--------------|
E|-2-2~-9--9--6-6-4-2-2-x-2-2-9------6-----4----2------------------|

Chorus

Intro

Chorus

Well its crazy to think that your never comming back
which you might be maby on your way
i know im stronger without you never commin back
ill take you with me any day
I wish i had the strength to keep you from running out
no nothings changed
i know theres something missing, someone who didnt cares
your still the same

Wake Me, Wake Me, Wake Me When its over
Youll See, Youll See Were starting again
We staring again

and they were constant reminders of everything you changed
and the little things bring me back to you
and im still here beside you thinking of the days
you told me something, but you never told the truth
I wish i had the strength to keep you from running out
no nothings changed
i know theres something missing, someone who didnt care
your still the same

Wake Me, Wake Me, Wake Me When its over
Youll See, Youll See Were starting again
We staring again
 
Repeat till he sings alone

you said you wait for me foreveeeeeeeeerrrrr
Comments