Dont Look Down - Wake Me Chords & Tabs

 

Wake Me Chords & Tabs

Dont Look Down Chords & Tabs

Version: 1 Type: Tab 0 ratings
1 star 2 stars 3 stars 4 stars 5 stars
comments

Wake Me Tab

   
dont look down - "wake me" from the album "five"

this is without timing, chances are if you looked this up, you have the cd.
play along with it to figure it all out.

intro:
e|    ---------------
b|    ---------------
g|    ---------------    repeat 4 times
d|    4-------8-6-4-6
a|46844-------8-6-4-6
e|    2-------6-4-2-4

verse:    picking variations on guitar, bass plays:
e|-------------------------------------------------------------------------------
b|-------------------------------------------------------------------------------
g|---------6--------------------------------8------------------------------------
d|-4-------6-------8---6---4--------4-------8-------8---6---4--------------------
a|-4-------4-------8---6---4--------4-------6-------8---6---4--------------------
e|-2---------------6---4---2--------2---------------6---4---2--------------------
"i know its crazy to think that your every coming back but just maybe..."

pre-chorus: guitar plays this:
e|-------------------------------------------------------------------------------
b|-------------------------------------------------------------------------------
g|---------6--------------------------------8------------------------------------
d|-4-------6-------8---6---4--------4-------8-------8---6---4--------------------
a|-4-------4-------8---6---4--------4-------6-------8---6---4--------------------
e|-2---------------6---4---2--------2---------------6---4---2--------------------
"i wish i had the strength to, keep you from running out..."

chorus:
e|-----------------|-------------------------------------------------------------
b|-----------------|-------------------------------------------------------------
g|---6---6---6-----|X2--------------------X2-------------------------------------
d|-4-6-4-6-4-6-8-6-|----4-------4---8-6------------------------------------------
a|-4-4-4-4-4-4-8-6-|----4-------4---8-6------------------------------------------
e|-2---2---2---6-4-|----2-------2---6-4------------------------------------------
"wake me, when its over..."
[ Tab from: http://www.guitartabs.cc/tabs/d/dont_look_down/wake_me_tab.html ]
verse: with same picking thing and bass playing this:
e|-------------------------------------------------------------------------------
b|-------------------------------------------------------------------------------
g|---------6--------------------------------8------------------------------------
d|-4-------6-------8---6---4--------4-------8-------8---6---4--------------------
a|-4-------4-------8---6---4--------4-------6-------8---6---4--------------------
e|-2---------------6---4---2--------2---------------6---4---2--------------------
"and all the constant reminders of every way you've changed"

pre-chorus: guitar plays this:
e|-------------------------------------------------------------------------------
b|-------------------------------------------------------------------------------
g|---------6--------------------------------8------------------------------------
d|-4-------6-------8---6---4--------4-------8-------8---6---4--------------------
a|-4-------4-------8---6---4--------4-------6-------8---6---4--------------------
e|-2---------------6---4---2--------2---------------6---4---2--------------------
"i wish i had the strength to, keep you from running out..."

chorus:
e|-----------------|-------------------------------------------------------------
b|-----------------|-------------------------------------------------------------
g|---6---6---6-----|X2--------------------X2-------------------------------------
d|-4-6-4-6-4-6-8-6-|----4-------4---8-6------------------------------------------
a|-4-4-4-4-4-4-8-6-|----4-------4---8-6------------------------------------------
e|-2---2---2---6-4-|----2-------2---6-4------------------------------------------
"wake me, when its over..."

bridge thing:
e|-------------------------------------------------------------------------------
b|-------------------------------------------------------------------------------
g|-------------------X2----------------------------------------------------------
d|-4-------4---8-6---------------------------------------------------------------
a|-4-------4---8-6---------------------------------------------------------------
e|-2-------2---6-4---------------------------------------------------------------
"just say you'll wait for me forever..."

bridge thing:
e|    ---------------
b|    ---------------
g|    ---------------    X2
d|    4-------8-6-4-6
a|46844-------8-6-4-6
e|    2-------6-4-2-4
"just say you'll wait, just say you'll wait"

chorus:
e|-----------------|-------------------------------------------------------------
b|-----------------|-------------------------------------------------------------
g|---6---6---6-----|X2--------------------X4-------------------------------------
d|-4-6-4-6-4-6-8-6-|----4-------4---8-6------------------------------------------
a|-4-4-4-4-4-4-8-6-|----4-------4---8-6------------------------------------------
e|-2---2---2---6-4-|----2-------2---6-4------------------------------------------
"wake me, when its over..."

outro:
e|   
b|   
g|    
d|    4-
a|46844-let ring
e|    2-
"just say you'll wait for me foreeeevvver"



daiquiri37@hotmail.com if anyone figures out the picking in the verse, let me know :) thanks!
Comments