Dont Look Down - Toothpaste Chords & Tabs

 

Toothpaste Chords & Tabs

Dont Look Down Chords & Tabs

Version: 1 Type: Tab 0 ratings
1 star 2 stars 3 stars 4 stars 5 stars
comments

Toothpaste Tab

Dont Look Down - Toothpaste
By:Andrew Mcshan(Guitarguyx182@belg88.com)
[ Tab from: http://www.guitartabs.cc/tabs/d/dont_look_down/toothpaste_tab.html ]
Verse
e|---------------------------------------------------------------------------|
B|---------------------------------------------------------------------------|
G|-------5-----------------5-5-7-7---7-5-4-2---------------------------------|
D|-5-5-2-5----x2---5-5-2-2-5-5-7-7---7-5-4-2---------------------------------|
A|-5-5-2-3---------5-5-2-2-3-3-5-5---5-3-2-0---------------------------------|
E|-3-3-0-----------3-3-0-0---------------------------------------------------|
Chorus
e|---------------------------------------------------------------------------|
B|------------5*--------------5*---------------------------------------------|
G|-----4-4-5-----5*-----4-4-5---5*----7-7-7-7--7-5-4-2-----------------------|
D|-5-5-4-4-5-------5-5--4-4-5------x2-7-7-7-7--7-5-4-2-----------------------|
A|-5-5-2-2-3-------5-5--2-2-3---------5-5-5-5--5-3-2-0-----------------------|
E|-3-3-------------3-3-------------------------------------------------------|
Bridge
e|---------------------------------------------------------------------------|
B|---------------------------------------------------------------------------|
G|-------------------5--5--5--7----------------------------------------------|
D|-5--5--5--2--2--2--5--5--5--7----------------------------------------------|
A|-5--5--5--2--2--2--3--3--3--5----------------------------------------------|
E|-3--3--3--0--0--0----------------------------------------------------------|
Comments