Dont Look Down - The Beginning Chords & Tabs

 

The Beginning Chords & Tabs

Dont Look Down Chords & Tabs

Version: 1 Type: Tab 0 ratings
1 star 2 stars 3 stars 4 stars 5 stars
comments

The Beginning Tab

Dont Look Down - The Beginning
By:Andrew Mcshan(Guitarguyx182@aol.com)
[ Tab from: http://www.guitartabs.cc/tabs/d/dont_look_down/the_beginning_tab.html ]
Guitar 1
e|--7-5-8-7-7-5-8-7----------3-5---------------------------------------------|
B|---------------------------------------------------------------------------|
G|-----------------------x2--------------------------------------------------|
D|---------------------------------------------------------------------------|
A|---------------------------------------------------------------------------|
E|---------------------------------------------------------------------------|
Guitar 2
e|-----------------x---------------------------------------------------------|
B|-----------------x---------------------------------------------------------|
G|---------7-7-5-5-x-5-5-----------------------------------------------------|
D|-5-5-2-2-7-7-5-5-x-5-5-----------------------------------------------------|
A|-5-5-2-2-5-5-3-3-x-3-3-----------------------------------------------------|
E|-3-3-0-0---------x---------------------------------------------------------|
Verse
e|-----------------x---------------------------------------------------------|
B|-----------------x---------------------------------------------------------|
G|---------7-7-5-5-x-5-5-----------------------------------------------------|
D|-5-5-2-2-7-7-5-5-x-5-5-----------------------------------------------------|
A|-5-5-2-2-5-5-3-3-x-3-3-----------------------------------------------------|
E|-3-3-0-0---------x---------------------------------------------------------|
Chorus
e|--7-5-8-7-7-5-8-7----------3-5---------------------------------------------|
B|---------------------------------------------------------------------------|
G|-----------------------x2--------------------------------------------------|
D|---------------------------------------------------------------------------|
A|---------------------------------------------------------------------------|
E|---------------------------------------------------------------------------|
Guitar 2
e|-----------------x---------------------------------------------------------|
B|-----------------x---------------------------------------------------------|
G|---------7-7-5-5-x-5-5-----------------------------------------------------|
D|-5-5-2-2-7-7-5-5-x-5-5-----------------------------------------------------|
A|-5-5-2-2-5-5-3-3-x-3-3-----------------------------------------------------|
E|-3-3-0-0---------x---------------------------------------------------------|


Verse

Chorus

Bridge
e|--------------------------------------------------------------------|
B|--------------------------------------------------------------------|
G|--------------------------------------------------------------------|
D|-12-12-14-14--------------------------------------------------------|
A|-12-12-14-14--------------------------------------------------------|
E|-10-10-12-12--------------------------------------------------------|

e|-----------------x---------------------------------------------------------|
B|-----------------x---------------------------------------------------------|
G|---------7-7-5-5-x-5-5-----------------------------------------------------|
D|-5-5-2-2-7-7-5-5-x-5-5-----------------------------------------------------|
A|-5-5-2-2-5-5-3-3-x-3-3-----------------------------------------------------|
E|-3-3-0-0---------x---------------------------------------------------------|

e|--7-5-8-7-7-5-8-7----------3-5---------------------------------------------|
B|---------------------------------------------------------------------------|
G|-----------------------x2--------------------------------------------------|
D|---------------------------------------------------------------------------|
A|---------------------------------------------------------------------------|
E|---------------------------------------------------------------------------|

Chorus
I  can't see you, when I want to
Away from me is where you are
With different lives, Different inside 
So close to me, But yet so far 

So please just tell me
I'll see you, again

Your definitely worth it to me
Just know I'll be there if you fall 
But I know I'm not him, 
And I know I'm not in,
But he knows not what he has at all 

So please just tell me
I'll see you, again

Do you think it's luck, 
That I found you, 
Just a coincidence,
That I found you 

Six states away, 
But I'm on my way 
am I ever coming back?

Your six states away 
but I'm on my way 
am I ever coming back? 
Yea well I'm never coming back again

So please just tell me 
I'll see you, again
You'll be there
So please just tell me 
I'll see you, again
Comments