Dont Look Down - On My Own Chords & Tabs

 

On My Own Chords & Tabs

Dont Look Down Chords & Tabs

Version: 1 Type: Tab 0 ratings
1 star 2 stars 3 stars 4 stars 5 stars
comments

On My Own Tab

Dont Look Down - On My Own
By:Andrew Mcshan
[ Tab from: http://www.guitartabs.cc/tabs/d/dont_look_down/on_my_own_tab.html ]
Intro
Guitar 1
e|-----------------------------------------------------------------------------|
B|-----------------------------------------------------------------------------|
G|--9/10/9-7-9-7-5-------------------------------------------------------------|
D|--x/x-/9-x-x-x-x-------------------------------------------------------------|
A|--7/8/-7-5-7-5-3-------------------------------------------------------------|
E|-----------------------------------------------------------------------------|
Guitar 2
e|------------------------------------------------------------------------------|
B|------------------------------------------------------------------------------|
G|---------5-5-5----------------------------------------------------------------|
D|-3-3-3-3-5-5-5-5--------------------------------------------------------------|
A|-3-3-3-3-3-3-3-5--------------------------------------------------------------|
E|-1-1-1-1-------3--------------------------------------------------------------|
Verse
e|-------------------------------------------------------------------------------|
B|-------------------------------------------------------------------------------|
G|-----5-5-9/10/9-7/9/7----------------------------------------------------------|
D|-3-3-5-5-x/x-/x-x/x/x----------------------------------------------------------|
A|-3-3-3-3-7/8/-7-5/7/5----------------------------------------------------------|
E|-1-1---------------------------------------------------------------------------|
Chorus
e|-------------------------------------------------------------------------------|
B|-------------------------------------------------------------------------------|
G|-----5-5-----------------------------------------------------------------------|
D|-3-3-5-5-7-7-5-5---------------------------------------------------------------|
A|-3-3-3-3-7-7-5-5---------------------------------------------------------------|
E|-1-1-----5-5-3-3---------------------------------------------------------------|

Intro

Verse


e|---------------------------------------------------------------------------|
B|---------------------------------------------------------------------------|
G|-5-5-5-5-5-10-8-5 x5--9/10/9-7/9/7-5---------------------------------------|
D|---------------------------------------------------------------------------|
A|---------------------------------------------------------------------------|
E|---------------------------------------------------------------------------|

Chorus

I think it's, selfish to
Want this as much as I do
I can't stop, myself from
From driving on and making it through
Mom and Dad understand
Things will work out in the end
But now I, should go
Cause time is somthing I can not bend

I'm on my own
It feels like the first time
That I let you go
I'm on on my own
Nothings gunna stop me,
I just thought you should know

Twenty-one, still so young
When will life really begin
Stop flailing, start caring
Getting up and fighting to win
You can't be, against me,
When will you listen to me
And open your eyes,
And see me for what I wannabe

I'm on my own
It feels like the first time
That I let you go
I'm on on my own
Nothings gunna stop me,
I just thought you should know

That I couldn't paint it better if I tried.
I wouldn't paint it better if I tried.(lets go!)

I'm on my own
It feels like the first time
That I let you go
I'm on on my own
Nothings gunna stop me,
I just thought you should know
Comments