Dont Look Down - Not Alone Chords & Tabs

 

Not Alone Chords & Tabs

Dont Look Down Chords & Tabs

Version: 1 Type: Tab 0 ratings
1 star 2 stars 3 stars 4 stars 5 stars
comments

Not Alone Tab

Dont Look Down - Not Alone 
By:Andrew Mcshan(Guitarguyx182@aol.com)

Intro
e|---------------------------------------------------------------------------|
B|-------------3---------------------------3-3-------------------------------|
G|-7-7-7-7-7-7---7-7/9/7-7-7/9/7-7-7-7/9/7-----7/9/7-------------------------|
D|-x-x-x-x-x-x---x-x/x/x---x/x/x-x-x-x/X/x-----x/x/x-------------------------|
A|-5-5-x-x-x-x---5-5/7/5---5/7/5-x-x-5/7/5-----5/7/5-------------------------|
E|-----5-5-7-7-3---------5-5-----7-7-------3-3-------------------------------|
Verse
e|---------------------------------------------------------------------------|
B|-------------777-7-7-------------------------------------------------------|
G|-7-7-7-7-7~~~777-7-7-7~~---------------------------------------------------|
D|-7-7-7-7-7~~-777-7-7-7~~~--------------------------------------------------|
A|-5-5-5-5-5~~-555-5-7-5~~~~-------------------------------------------------|
E|-----------------5-7-------------------------------------------------------|
[ Tab from: http://www.guitartabs.cc/tabs/d/dont_look_down/not_alone_tab.html ]
e|---------------------------------------------------------------------------|
B|---------------------------------------------------------------------------|
G|-7-7---------7-7-----------------------------------------------------------|
D|-7-7-5-5-2-2-7-7-----------------------------------------------------------|
A|-5-5-5-5-2-2-5-5-----------------------------------------------------------|
E|-----3-3-0-0---------------------------------------------------------------|
Chorus
e|---------------------------------------------------------------------------|
B|---------------------------------------------------------------------------|
G|-7-7---------7-7-----------------------------------------------------------|
D|-7-7-5-5-2-2-7-7-----------------------------------------------------------|
A|-5-5-5-5-2-2-5-5-----------------------------------------------------------|
E|-----3-3-0-0---------------------------------------------------------------|

e|---------------------------------------------------------------------------|
B|-------------3---------------------------3-3-------------------------------|
G|-7-7-7-7-7-7---7-7/9/7-7-7/9/7-7-7-7/9/7-----7/9/7-------------------------|
D|-x-x-x-x-x-x---x-x/x/x---x/x/x-x-x-x/X/x-----x/x/x-------------------------|
A|-5-5-x-x-x-x---5-5/7/5---5/7/5-x-x-5/7/5-----5/7/5-------------------------|
E|-----5-5-7-7-3---------5-5-----7-7-------3-3-------------------------------|

Verse

Chorus

e|---------------------------------------------------------------------------|
B|---------------------------------------------------------------------------|
G|-7-7---------7-7---------7-7-7-7~~~~~~~~-----------------------------------|
D|-7-7-5-5-2-2-7-7---------x-x-x-x~~~~~~~~~~---------------------------------|
A|-5-5-5-5-2-2-5-5---------5-5-5-5~~~~~~~~-----------------------------------|
E|-----3-3-0-0---------------------------------------------------------------|

e|---------------------------------------------------------------------------|
B|-------------3---------------------------3-3-------------------------------|
G|-7-7-7-7-7-7---7-7/9/7-7-7/9/7-7-7-7/9/7-----7/9/7-------------------------|
D|-x-x-x-x-x-x---x-x/x/x---x/x/x-x-x-x/X/x-----x/x/x-------------------------|
A|-5-5-x-x-x-x---5-5/7/5---5/7/5-x-x-5/7/5-----5/7/5-------------------------|
E|-----5-5-7-7-3---------5-5-----7-7-------3-3-------------------------------|
Comments