Dont Look Down - Brainwashed Chords & Tabs

 

Brainwashed Chords & Tabs

Dont Look Down Chords & Tabs

Version: 1 Type: Tab 0 ratings
1 star 2 stars 3 stars 4 stars 5 stars
comments

Brainwashed Tab

Dont Look Down - Brainwashed
by Guitarguyx182@aol.com

Verse/Intro
-0-0-x-0-0-x-0-0-x-0-0-x-0-0-0-0-x-0--0--x--------
-0-0-x-0-0-x-0-0-x-0-0-x-0-0-0-0-x-0--0--x--------
-5-5-x-0-0-x-0-0-x-0-0-x-5-5-0-0-x-12-12-x-10-10--
-5-5-x-7-7-x-5-5-x-3-3-x-5-5-7-7-x-12-12-x-10-10--
-3-3-x-7-7-x-5-5-x-3-3-x-3-3-7-7-x-10-10-x-8--8---
-0-0-x-5-5-x-3-3-x-1-1-x-----5-5-x-0--0--x-0--0---

I'm stuck in a place I don't Belong
With no luck of ever movin on
I'm brainwashed into thinking I knew the truth
Wishing there was things I never knew

0-0-x-0-0-x-0-0-x-0-0-x-0-x-0--0--x---------
0-0-x-0-0-x-0-0-x-0-0-x-0-x-0--0--x---------
0-0-x-0-0-x-0-0-x-0-0-x-0-x-10-10-x----10/9-
7-7-x-3-3-x-5-5-x-3-3-x-7-x-10-10-5-5--10/9-
7-7-x-3-3-x-5-5-x-3-3-x-7-x-8--8--5-5--8-/7-
5-5-x-1-1-x-3-3-x-1-1-x-5-x-0--0--3-3-------

How can I stop these feeling
From turning around
And stabbing me in the back 
Why do I lie to myself
I keep telling myself
She has feeling that she lacks
[ Tab from: http://www.guitartabs.cc/tabs/d/dont_look_down/brainwashed_tab.html ]
-0-0-x-0-0-x-0-0-x-0-0-x-0-0-0-0-x-0--0--x--------
-0-0-x-0-0-x-0-0-x-0-0-x-0-0-0-0-x-0--0--x--------
-5-5-x-0-0-x-0-0-x-0-0-x-5-5-0-0-x-12-12-x-10-10--
-5-5-x-7-7-x-5-5-x-3-3-x-5-5-7-7-x-12-12-x-10-10--
-3-3-x-7-7-x-5-5-x-3-3-x-3-3-7-7-x-10-10-x-8--8---
-0-0-x-5-5-x-3-3-x-1-1-x-----5-5-x-0--0--x-0--0---

(PALM MUTE)
I'm trying to make sense of this
But is so hard when
There so much I've missed
Life suck when you think you'll be okay
Until you fall apart the very next day

How can I stop these feeling
From turning around
And stabbing me in the back 
Why do I lie to myself
I keep telling myself
She has feeling that she lacks

Interlude
0-x-0-0-x-0-0-x-0-0--
0-x-0-0-x-0-0-x-0-0--
5-x-7-5-x-7-5-x-7-10-
5-5-0-0-x-12-12-x-10-
3-x-5-3-x-5-3-x-5-8--
0-x-0-0-x-0-0-x-0-0--

0-x-0-0-x-0-
0-x-0-0-x-0-
5-5-0-0-x-0-
5-5-3-5-3-2-(Palm Mute)
3-3-3-5-3-2-
0-x-1-3-1-0-

I'm brainwashed, by another.
I'm brainwashed, like no other.

How can I stop these feeling
From turning around
And stabbing me in the back 
Why do I lie to myself
I keep telling myself
She has feeling that she lacks
Comments