Dont Look Down - Away Chords & Tabs

 

Away Chords & Tabs

Dont Look Down Chords & Tabs

Version: 1 Type: Tab 0 ratings
1 star 2 stars 3 stars 4 stars 5 stars
comments

Away Tab

Dont Look Down - Away
By:Andrew Mcshan(Guitarguyx182@aol.com)
Intro
e|----------------------------------------------------------------|
B|----------------------------------------------------------------|
G|-----------7-7-5-5---------7-7-5-5------------------------------|
D|---2---5-5-7-7-5-5-2-2-5-5-7-7-5-5------------------------------|
A|--2-2--5-5-5-5-3-3-2-2-5-5-5-5-3-3------------------------------|
E|-0---0-3-3---------0-0-3-3--------------------------------------|

Verse
e|---------------------------------------------------------------|
B|---------------------------------------------------------------|
G|-12-11-7-9-----------------------------------------------------|
D|-x--x--x-x-----------------------------------------------------|
A|-10-9--5-7-----------------------------------------------------|
E|---------------------------------------------------------------|

Chorus
e|---------------------------------------------------------------|
B|---------------------------------------------------------------|
G|--------7-7-5-5---------7-7-5-5--------------------------------|
D|-2--5-5-7-7-5-5-2-2-5-5-7-7-5-5--------------------------------|
A|-2--5-5-5-5-3-3-2-2-5-5-5-5-3-3--------------------------------|
E|-0--3-3---------0-0-3-3----------------------------------------|
[ Tab from: http://www.guitartabs.cc/tabs/d/dont_look_down/away_tab.html ]
Verse
e|----------------------------------------------------------------|
B|----------------------------------------------------------------|
G|-12-11-7-9------------------------------------------------------|
D|-x--x--x-x------------------------------------------------------|
A|-10-9--5-7------------------------------------------------------|
E|----------------------------------------------------------------|

Chorus

Bridge
e|-12----12----------15~~--15-------15-----------14/15------------|
B|---12----12-----12----------12-------12------12-----------------|
G|-----12----12-12---------------12-------12-12-------------------|
D|----------------------------------------------------------------|
A-----------------------------------------------------------------|
E-----------------------------------------------------------------|

e|----------------------------------------------------------------|
B|----------------------------------------------------------------|
G|---------------7-7-5-5-----------7-7-5-5------------------------|
D|---2-----5-5-7-7-5-5---2-2-5-5-7-7-5-5--------------------------|
A|--2-2---5-5-5-5-3-3---2-2-5-5-5-5-3-3---------------------------|
E|-0---0-3-3-----------0-0-3-3------------------------------------|


Chorus

I couldnt find the lyrics, so i tried to do them , so if there not perfect sorry.

Scattered Thoughts keep running through my head 
i keep thinkin about all the wrong things that i said
do you really want to get down with me
im so stupid cause ill never like things heh

Take Me Away
Take Me Awayyyy

I dont understand all the things u say 
you the who fills my head and your wishing me away
i dont understand all the things u do
you just bring me down and get me over you

Take Me Away
Take Me Awayyyyy
Take Me Away
Take Me Awayyyy Yea

Lets try this all again now
take me all away from you
from you, from you,from you

Take Me Away
Take Me Awayyyy
Take Me Away
Take Me Awayyyy
Comments