Dont Look Down - All Those Times Chords & Tabs

 

All Those Times Chords & Tabs

Dont Look Down Chords & Tabs

Version: 1 Type: Tab 0 ratings
1 star 2 stars 3 stars 4 stars 5 stars
comments

All Those Times Tab

Dont Look Down - All Those Times
By:Andrew Mcshan(Guitarguyx182@aol.com)
Intro
e|----------------------------------------------------------------|
B|----------------------------------------------------------------|
G|-10-9-7-5-5-10-9-10-12-10-9-10-9-9---10-9-5---------------------|
D|-x--x-x-5-5-x--x-x--x--x--x-x--x-x----x-x-x---------------------|
A|-8--7-5-3-3-8--7-8--10-8--7-8--7-7----8-7-3---------------------|
E|----------------------------------------------------------------|

Verse
e|----------------------------------------------------------------|
B|----------------------------------------------------------------|
G|-5-5---------------5-5------------------------------------------|
D|-5-5-5-5-7-7-3-x-3-5-5-5-5-7-7-3-x-3-4--------------------------|
A|-3-3-5-5-7-7-3-x-3-3-3-5-5-7-7-3-x-3-4--------------------------|
E|-----3-3-5-5-1-x-1-----3-3-5-5-1-x-1-2--------------------------|

Chorus
e|---------------------------------x------------------------------|
B|---------------------------------x------------------------------|
G|-7-7-6-------------10-10--10-9-7-x-7-7-6------------------------|
D|-7-7-6-5-5-7-7-5-5-10-10--10-9-7-x-7-7-6-5-5-7-7-5-5-3-3--------|
A|-5-5-4-5-5-7-7-5-5-8--8---8--7-5-x-5-5-4-5-5-7-7-5-5-3-3--------|
E|-------3-3-5-5-3-3---------------x-------3-3-5-5-3-3-1-1--------|
[ Tab from: http://www.guitartabs.cc/tabs/d/dont_look_down/all_those_times_tab.html ]
Verse
e|----------------------------------------------------------------|
B|----------------------------------------------------------------|
G|-5-5---------------5-5------------------------------------------|
D|-5-5-5-5-7-7-3-x-3-5-5-5-5-7-7-3-x-3-4--------------------------|
A|-3-3-5-5-7-7-3-x-3-3-3-5-5-7-7-3-x-3-4--------------------------|
E|-----3-3-5-5-1-x-1-----3-3-5-5-1-x-1-2--------------------------|

Chorus

Bridge
e|----------------------------------------------------------------|
B|----------------------------------------------------------------|
G|-5-5-5/7/5-5/7/5-----5/7/5-5/7/5-----5/7/5-5/7/5----------------|x2
D|-5-5-x/x/x-x/x/x-5-5-x/x/x-x/x/x-7-7-x/x/x-x/x/x-3-3------------|
A|-3-3-3/5/3-3/5/3-5-5-3/5/3-3/5/3-7-7-3/5/3-3/5/3-3-3------------|
E|-----------------3-3-------------5-5-------------1-1------------|


Verse

Chorus

Heres the lyrics from /www.plyrics.com

All those times when,
i was down and you picked me up, off of the ground
and i see your face and everything's okay.

When i'm alone you don't hesitate to pick up the phone,
and you always, know just what to say.

I'm going down, i'm going no where, without you.
I'm going down, i'm going no where, without you.

Maybe now you'll, understand just what i think,
how i feel, my words are true,
this time is for real

we try to watch the things that change,
sum things that change, are for the best,
i hope you see, im not like the rest

I'm going down, i'm going no where, without you.
I'm going down, i'm going no where, without you.

Things just seem better, when your around
your smiling face, never hits a frown
cuz i lost you once, never again,
cuz your my girl, and my best friend

I'm going down, i'm going no where, without you.
I'm going down, i'm going no where, without you.


thanks, email me if u have n e problems.
Comments