Donovan Frankenreiter - Free Chords & Tabs

 

Free Chords & Tabs

Donovan Frankenreiter Chords & Tabs

Version: 1 Type: Tab 1 rating
1 star 2 stars 3 stars 4 stars 5 stars
comments

Free Tab

   
Free, by Donovan Frankenreiter (with Jack Johnson)


The chords for the intro and verse are

G Em Am D 

and the chorus is

G D C C


The break in the middle of the song (at 1:17) is just the normal verse
pattern, with the chords struck once at the beginning of each measure,
and a Bm7 between the Am and D the second time around.  For the ukelele
part, I stick a capo on the 7th fret.  My **approximation** of
the part goes something like (combining the two parts for one guitar,
relative to the capo):

key:
1p0 = pull off from the first fret to an open string
3/5 = slide up from fret 3 to fret 5
7/5 = slide down from fret 7 to fret 5
1~  = slight vibrato 
let all notes ring

   G                 Em                Am                D  
    1 & 2 & 3 & 4 &   1 & 2 & 3 & 4 &   1 & 2 & 3 & 4 &   1 & 2 & 3 & 4 &
e-|-----------------|-------0---------|-------1~--------|-------3~--1p0---|
B-|-1---------------|-1---------0-----|-3---------------|-----0-----------|
G-|-0---------------|-2---2-------0---|-2---2-----------|-0---------------|
D-|-2---------------|-2---------------|-0---------------|-0---------------|
A-|-3---------------|-0---------------|-----------------|-2---------------|
E-|-----------------|-----------------|-----------------|-3---------------|
[ Tab from: http://www.guitartabs.cc/tabs/d/donovan_frankenreiter/free_tab.html ]
    
    G                 Em                Am                Bm7
    1 & 2 & 3 & 4 &   1 & 2 & 3 & 4 &   1 & 2 & 3 & 4 &   1 & 2 & 3 & 4 &
e-|-------0---------|-------0---------|-------0---------|-3-----3/5~------|
B-|-1---------------|-1-1-------------|-3---------------|-3---------------|
G-|-0---0-------0---|-2-----------2---|-2---2-----------|-4---------------|
D-|-2---------------|-2---------------|-0---------------|-2---------------|
A-|-3---------------|-0---------------|-----------------|-----------------|
E-|-----------------|-----------------|-----------------|-----------------|


    D7
    1 & 2 & 3 & 4 &   1 & 2 & 3 & 4 &
e-|-1---------------|-75---53~------|
B-|-0---------------|-85---53~------|
G-|-0---------------|-----------------|
D-|-0---------------|-----------------|
A-|-----------------|-----------------|
E-|-----------------|-----------------|


Chords used:

WITHOUT CAPO
G   320003
Em  022000
Am  x02210
D   xx0232
C   x32010
Bm7 x24232
D7  xx0212

WITH CAPO on 7 (ie. for intro and middle section)
G   x32010
Em  x02210
Am  xx0231
D   320003
C   133211
Bm7 xx2433
D7  320001


This is likely to be very rough, but seeing as it's not in here at all yet, 
it's a start for someone to improve on.  Drop me a line if you have a problem 
with the tab, or a question or whatever: weenstarn@hotmail.com.
Comments