Donovan - Mellow Yellow Chords & Tabs

 

Mellow Yellow Chords & Tabs

Donovan Chords & Tabs

Version: 2 Type: Bass Tab

Mellow Yellow Bass Tab

This is a really cool song and its fun to play and sing along with, so have fun with it.

Verse:
[ Tab from: http://www.guitartabs.cc/tabs/d/donovan/mellow_yellow_btab_ver_2.html ]
G-------------------------------------------------------------------------|
D-------------------------------------------------------------------------|
A---5-5-5-5---------5-5-5-5-----------------------------------------------|
E-----------3-3-3-3---------5-5-5-5-4-3-3-3-3-3-3-3-3--5-5-5-5-5-5-5-5----|

Chorus:

G---------------------------|
D---------------------------|      x 3
A---5-5-5-5-----------------|
E-----------3-3-5-5---------|


That's it. Stay Funky.