Donovan - Epistle To Dippy Chords & Tabs

 

Epistle To Dippy Chords & Tabs

Donovan Chords & Tabs

Version: 1 Type: Tab 0 ratings
1 star 2 stars 3 stars 4 stars 5 stars
comments

Epistle To Dippy Tab

#----------------------------------PLEASE NOTE--------------------------------#
#This file is the author's own work and represents their interpretation of the#
#song. You may only use this file for private study, scholarship, or research.#
#-----------------------------------------------------------------------------#
From: RSambu@aol.com
To: guitar@olga.net
Subject: TAB: Epistle to Dippy (Donovan)
(Lyrics courtesy Serge Mironneau)
Epistle To Dippy     (Donovan P. Leitch)
4/4
[Intro]:
       v   v   v   v   |   v   v   v   v   |
   e-------------------|-------------------|
   B-------------------|-------------------|
   G-------------------|---2-0-------------|   [4x]
   D---0---0---0---0---|---------2---0-----|
   A-------------------|---------------3---|
   E-------------------|-------------------|

[violin bit for guitar]:
       v   v   v   v   |   v   v   v   v   |
   e-------------------|---8---8---8-------|
   B-----6-6-8-6---5---|-------------------|
   G-------------------|-------------------|  [2x solo, 2x w/intro on bass]
   D-------------------|-------------------|
   A-------------------|-------------------|
   E-------------------|-------------------|


[intro riff 2x]
[do intro riff with this]:
    Dum dum dum, dum dum dum dum dum
    Dum dum dum, dum dum dum dum dum
Dum dum dum dum, dum dum dum dum dum
Dum dum dum dum, dum dum dum dum dum
Dum dum dum dum, dum dum dum dum dum  [fade...]

[ Tab from: http://www.guitartabs.cc/tabs/d/donovan/epistle_to_dippy_tab.html ]
Comments