Donnel Jones - This Love Chords & Tabs

 

This Love Chords & Tabs

Donnel Jones Chords & Tabs

Version: 1 Type: Tab 0 ratings
1 star 2 stars 3 stars 4 stars 5 stars
comments

This Love Tab

   
-------------------------------------------------------------------------------
			     This Love - Donnel Jones
-------------------------------------------------------------------------------
Tabbed by:Jeff Kamungu
Email:geoffykom@yahoo.com

Tuning:Standard
[ Tab from: http://www.guitartabs.cc/tabs/d/donnel_jones/this_love_tab.html ]
        Em7               F#m7                     Bm7
e|----------------|--------------------|--------------------------------------|
B|---------0------|-------2------------|----------3-2-3-----------------------|
G|----------------|----------2---------|-----------------2h(4p)2--------------|
D|------0---------|-------------2------|------4------------------4------------|
A|----------------|--------------------|--2-----------------------------------|
E|--0-------------|--2-----------------|--------------------------------------|

This is one other simple song with the same progresion throughout but quite funky!

| /  slide up
| \  slide down
| h  hammer-on
| p  pull-off
| ~  vibrato
| +  harmonic
| x  Mute note
===============================================================================
Comments