Donnas - You Wanna Get Me High Chords & Tabs

 

You Wanna Get Me High Chords & Tabs

Donnas Chords & Tabs

Version: 1 Type: Tab 0 ratings
1 star 2 stars 3 stars 4 stars 5 stars
comments

You Wanna Get Me High Tab

   
-------------------------------------------------------------------------------
			     "You Wanna Get Me High" - The Donnas
-------------------------------------------------------------------------------
Tabbed by: plaidpants86
Email:Undisclosed

A great badass song by the only girl rock band that matters...


Tuning:As standard

Intro:
e|-10---10---10---10---8---10---10---8---8---8---8---10---8---8-------|
B|-10---10---10---10---6---10---10---8---8---8---8---10---8---8-------|
G|--8-----8-----8---- 8---6-----8----8---6---6---6---6-----8---6---6--|
D|--------------------------------------------------------------------|
A|--------------------------------------------------------------------|
E|--------------------------------------------------------------------|

e|-10---10---10---10---8---10---10---8---8---8---8---10---8---8-------|
B|-10---10---10---10---8---10---10---8---8---8---8---10---8---8-------|
G|--8-----8-----8-----8---6----8-----8---6---6---6---6-----8---6---6--|
D|--------------------------------------------------------------------|
A|--------------------------------------------------------------------|
E|--------------------------------------------------------------------|

Riff:
e|-----------------------------------------------------------|
B|-----------------------------------------------------------|
G|-12b--11h12--11b--10h11--11b--10h11------------------------|
D|------------------------------------------------------11b--|
A|-----------------------------------------------------------|
E|-----------------------------------------------------------|

e|-12b--11h12--11b--10h11--11b--10h11--------------10h11--13h11--10-----------------------------|
B|------------------------------------------------------11b--11-----------------------------10--|
G|----------------------------------------------------------------------------------------------|
D|----------------------------------------------------------------------------------------------|
A|----------------------------------------------------------------------------------------------|
E|----------------------------------------------------------------------------------------------|

Verse:
e|-9-9-9-9-8-8-8-8-6-6-6-6-8-9-9-9-9-8-8-8-8-6-6-6-6-8--|
B|-9-9-9-9-8-8-8-8-6-6-6-6-8-9-9-9-9-8-8-8-8-6-6-6-6-8--|
G|-7-7-7-7-6-6-6-6-4-4-4-4-6-7-7-7-7-6-6-6-6-4-4-4-4-6--|
D|------------------------------------------------------|
A|------------------------------------------------------|
E|------------------------------------------------------|
[ Tab from: http://www.guitartabs.cc/tabs/d/donnas/you_wanna_get_me_high_tab.html ]
(intro, for bit that goes "You wanna get me, you wanna get me high")


Chorus:
e|-9-9-9-9-9-9-9-10-10-10-10-10-10-10-8-8-8-8-8-8-8-10-10-10-10-10-6-6-6-6-6-----------|
B|-9-9-9-9-9-9-9-10-10-10-10-10-10-10-8-8-8-8-8-8-8-10-10-10-10-10-6-6-6-6-6-----------|
G|-7-7-7-7-7-7-7--8---8---8---8---8--8---8-6-6-6-6-6-6-6--8---8---8---8---8-4-4-4-4-4--|
D|-------------------------------------------------------------------------------------|
A|-------------------------------------------------------------------------------------|
E|-------------------------------------------------------------------------------------|

(verse)

Bridge: (the bit which goes "You wanna get me...it's too late so don't even try")
e|-9-7-9-------------------------9-7-9-----------------------------------------------|
B|-9-7-9-------------------------9-7-9-----------------------------------------------|
G|-7-5-7-------------------------7-5-7-----------------------------------------------|
D|-----------------------------------------------------------------------------------|
A|-----------------------------------------------------------------------------------|
E|-----------------------------------------------------------------------------------|

Solo:
e|-------------------------------------------------------------------------|
B|---------------------------------------------------------------------12--|
G|---------------------------------------------------------------12b-------|
D|-12p11p10p12p11p10p12p11p10p12p11p10-------------------------------------|
A|-------------------------------------------------------------------------|
E|-------------------------------------------------------------------------|

e|------------------------------------------------------------------------------|
B|------------------------------------------------------------------------------|
G|--------------------------------------------------------------12~~~-11-12~~~--|
D|-10p11p12p10p11p12p10p11p12p10p11p12------------------------------------------|
A|------------------------------------------------------------------------------|
E|------------------------------------------------------------------------------|

e|----------------------------------|
B|----------------------------------|
G|-11--10--11--10--11b--10--11--10--|
D|----------------------------------|
A|----------------------------------|
E|----------------------------------|

(Verse)

(Intro)

(Chorus several times)


| b  bend
| /  slide up
| \  slide down
| h  hammer-on
| p  pull-off
| ~  vibrato
| +  harmonic
| x  Mute note
===============================================================================
Comments