Donnas - Too Bad About Your Girl Chords & Tabs

 

Too Bad About Your Girl Chords & Tabs

Donnas Chords & Tabs

Version: 1 Type: Tab 0 ratings
1 star 2 stars 3 stars 4 stars 5 stars
comments

Too Bad About Your Girl Tab

   
----------------------------------------------------------------------------
               TOO BAD ABOUT YOUR GIRL- The Donnas
----------------------------------------------------------------------------

Tabbed by: Matt
Tuning: Standard


 Intro/verse (bass arranged for guitar)
e|-----------------|-----------------|----------------|--------------------|
B|-----------------|-----------------|----------------|--------------------|
G|-----------------|-----------------|----------------|--------------------|
D|-----------------|-----------------|----------------|--------------------|
A|-2-2-2-2-2-2-2-2-|-2-2-2-2-2-2-2-2-|-0-0-0-0-0-2-2-2|-2-2-2-2-2-2-2-2----|
E|-----------------|-----------------|----------------|--------------------|
 
  Fill (1st verse& before every chorus)
e|-0--------|
B|----0-----|
G|----------|
[ Tab from: http://www.guitartabs.cc/tabs/d/donnas/too_bad_about_your_girl_tab.html ]
 Chorus (listen to the song for the rhythm)
e|---------------------|-----------------------|---------------------------|
B|---------------------|----------------5--5---|---------------------------|
G|-7--7-7-7-9-4--4-4-4-|-7--7-7-7-9-4-4-4--4-4-|-7--7-7-7-9-4--4-4-4-------|
D|-7--7-7-7-9-4--4-4-4-|-7--7-7-7-9-4-4-2--2-4-|-7--7-7-7-9-4--4-4-4-------|
A|-5--5-5-5-7-2--2-2-2-|-5--5-5-5-7-2-2-2--2-2-|-5--5-5-5-7-2--2-2-2-------|
E|---------------------|-----------------------|---------------------------|
                   
e|-------------------------------------------------------------------------|
B|-------------------------------------------------------------------------|
G|-7--7-7-7-9-11--------------------------------------7--------------------|
D|-7--7-7-7-9-11-----4-4-4-4-4-4-4-4-4-4-4-4-4-4------7--9-----------------|
A|-5--5-5-5-7-9------4-4-4-4-4-4-4-4-4-4-4-4-4-4--7-7-5--9-----------------|
E|-------------------2-2-2-2-2-2-2-2-2-2-2-2-2-2--5-5----7-----------------|
                    PM(1st chorus only)_________| PM_|                      

Bridge
e|----------------------------------1---------0---1-1-------0-0------------|
B|----------------------------------1---------0---1---1-----0---0----------|
G|----------------------------------2---------1---2-----2---1-----1--------|
D|-9--9\7-7--7\5-5--5\4-4--4-3--3---3-3-2-2---2-2-3-------3-2--------------|
A|-9--9\7-7--7\5-5--5\4-4--4-3--3-----3-2-2-----2-3-------3-2--------------|
E|-7--7\5-5--5\3-3--3\2-2--2-1--1-----1-0-0-----0-1-------1-0--------------|

 Solo
e|------------------------------------------------------10-----------------|
B|-7------------------7-----------7----7----7------10b12---10b12-----------|
G|-9b11rb9b11-9-7-9-7-9b11---7-9--9b11-9b11-9b11-7-------------------------|
D|-------------------------9-----------------------------------------------|
A|-------------------------------------------------------------------------|
E|-------------------------------------------------------------------------|

e|-------------------------------------------------------------------------|
B|-10b12rb10-7-------------------------------------------10-----10----10---|
G|--------------9b11rb9-7-9-7-------------7--7--9----9b11---9b11--9b11-----|
D|----------------------------9-----------7--7--9-7-9----------------------|
A|------------------------------------7-9--9--9--9-------------------------|
E|--------------------------------/10--------------------------------------|

e|------------------------|
B|-------------10b12~~~~--|
G|-7-9b11rb9-7------------|
D|------------------------|
A|------------------------|
E|------------------------|

Key:
PM= Palm Mute
\or/=Slide
b=Bend
rb=Release Bend
~=Vibrato
Comments