Donnas - Take It Off Chords & Tabs

 

Take It Off Chords & Tabs

Donnas Chords & Tabs

Version: 5 Type: Tab 0 ratings
1 star 2 stars 3 stars 4 stars 5 stars
comments

Take It Off Tab

   
Take it off tab by The Donnas

***********************
The Donnas - Take it off
************************

Song: Take It Off
Artist: The Donnas

This one is little more different that the other tabs.
Listen carefuly to the song first, you'll see I'm right

x: palm mute
s: Slide
h: hammer on
P: pull of
b: bend

Intro
|----------------------------------------------------|
|----------------------------------------------------|
|---------------7--------7-6-------------------------|
|------4-6-6-4--7--7-7-7-7-7---4-6-6-4--5-5--7-7-7-7-|
|------2-2-2-2--5--7-7-7-7-7---2-2-2-2--5-5--7-7-7-7-|
|------------------5-5-5-5-5------------3-3--5-5-5-5-|
                     x x
|------------------------------------------|
|------------------------------------------|
|------------4-4-----4-4-------------------|
|--4-6-6-4---4-4-----4-4-5-5-5-5-7-7-7-7---|
|--2-2-2-2---2-2-----2-2-5-5-5-5-7-7-7-7---|
|----------0------0------3-3-3-3-5-5-5-5---|

Vers
|----------------------------------------------------|
|---4-4-4-4--------3-2----4-4-4-4--------------------|
|---4-4-4-4----2-4-4-4----4-4-4-4--------------------|
|---4-4-4-4--4-2-4-4-4----4-4-4-4--5-5-5-5--7-7-7-7--|
|---2-2-2-2--2-2-2-2-2----2-2-2-2--5-5-5-5--7-7-7-7--|
|----------------------------------3-3-3-3--5-5-5-5--|
             x

Pre-chorus
|---------------------------------|
|---------------------------------|
|---------------------------------|
|-4-4-4-4-4-4-4-4-4-4-4-4-4-4-4-4-|
|-4-4-4-4-4-4-4-4-4-4-4-4-4-4-4-4-|
|-2-2-2-2-2-2-2-2-2-2-2-2-2-2-2-2-|
[ Tab from: http://www.guitartabs.cc/tabs/d/donnas/take_it_off_tab_ver_5.html ]
Chorus
|---------------------------------------------------|
|---------------------------------------------------|
|-4-4-4-2-4-7-----------4-4-4-4--4-4-4-4--6-6-6-6---|
|-4-4-4-2-4-7--7-7-7-7--2-2-2-2--5-5-5-5--7-7-7-7---|
|-2-2-2-0-2-5--7-7-7-7--2-2-2-2--5-5-5-5--7-7-7-7---|
|--------------5-5-5-5--0-0-0-0--3-3-3-3--5-5-5-5---|

solo
|--------------------------------------------------------------|
|---2-2--------------------------------------------7-------7---|
|-------4-2---2------------------------------------7-------7---|
|-----------4---4-2---2------4s9--9-9-7-9--9-9-9-7----9--9---9-|
|-------------------4---4--2-----------------------------------|
|--------------------------------------------------------------|
            x   x   x   x

|-------------------------------------5--------------------|
|--7--9--7------------------------5--5---------------------|
|--7-b9--7----------------2----2--4-b4----4--4----2h4p2----|
|----------9-7-9--9s2--4----4------------------4--------4--|
|----------------------------------------------------------|
|----------------------------------------------------------|

|----------------------------------------------------------|
|----------------------------------------------------------|
|----------------------------------------------------------|
|--2h4p2h4p2h4p2h4p2h4p2h4p0h2-4p0-------------------------|
|----------------------------------------------------------|
|----------------------------------------------------------|


Breakdown
|---------------------------------------------------------|
|---------------------------------------------------------|
|---------------------------------------------------------|
|------5----5-5-7-----------------------------------------|
|--2-2-2--0-2-2-5--7-7-7----------------------------------|
|------------------5-5-5---0-0-0-0--0-b3-2-0-b5-3-2-------|
   x x x  x x x x  x x x


Ending
|-----------------------|
|-----------------------|
|-4-4-4-4---4-4---6-----|
|-2-2-2-2---5-5---7-----|
|-2-2-2-2---5-5---7-----|
|-0-0-0-0---3-3---5-----|
Comments