Donnas - Take It Off Chords & Tabs

 

Take It Off Chords & Tabs

Donnas Chords & Tabs

Version: 4 Type: Tab 0 ratings
1 star 2 stars 3 stars 4 stars 5 stars
comments

Take It Off Tab

h:hammer on
p:pull off
/:slide up
\:slide down
^:bend


e|--------------------------------------|
B|--------------------------------------|
G|--------------------------------------|
D|-9/11-11-11-11-9-7-7---7--------------|
A|---------------------9---9-7---7------|
E|-----------------------------9---9-7--|


e|------------------------------------------|
B|------------------------7-9-----7--9^-7---|
G|------------------------7-9-----7-----7---|
D|--/9--9--9-7-9---9--9-7-----9-9-----------|
A|------------------------------------------|
E|------------------------------------------|

[ Tab from: http://www.guitartabs.cc/tabs/d/donnas/take_it_off_tab_ver_4.html ]
e|---------------------|-----------------|
B|---------------------|-----------------|
G|---------------2---2-|-4/6--6--6-------|
D|-9-7-9-9\--2-4---4---|-----------9-9-7-|
A|---------------------|-----------------|
E|---------------------|-----------------|

thrill lots of times      | and when u feel
between fret 9 and 7      | like you had enough...
e|------------------------|----------------------|
B|------------------------|----------------------|
G|------------------------|----------------------|
D|------------------------|----------------------|
A|-[9,7]~~~~~~~~~~~~~~~~~-|-7h9-7~~--------------|
E|------------------------|----------------------|
Comments