Donnas - Take It Off Chords & Tabs

 

Take It Off Chords & Tabs

Donnas Chords & Tabs

Version: 1 Type: Bass Tab 0 ratings
1 star 2 stars 3 stars 4 stars 5 stars
comments

Take It Off Bass Tab

   
"Take it Off"
From the Album "Spend the Night"
Artist "The Donnas"
Standard Tuning (E,A,D,G)

The bass does not come in until about 12 to 14 seconds but this is what I like to play 
the intro along with the guitar:
G----------------------------------------------------------------------------|
D------4-66-4-------------------4-66-4---------------------------------------|
A--------------5-------------------------------------------------------------|
E---------------5-5--77----------------3-33--5-55----------------------------|


When the bass comes in play:
This is the verse
G----------------------------------------------------------------------------|
D----------------------------------------------------------------------------|
A-----2222222222222222222222222222-------------------------------------------|
E-----------------------------------3-------------5--------------------------|

[ Tab from: http://www.guitartabs.cc/tabs/d/donnas/take_it_off_btab.html ]
Pre Chorus:
"I think that I want you on the Floor"
G----------------------------------------------------------------------------|
D----------------------------------------------------------------------------|
A----------------------------------------------------------------------------|
E-----(2)Let Ring------------------------------------------------------------|

Chorus:
G----------------------------------------------------------------------------|
D----------------------------------------------------------------------------|
A---------2222222---5--------------------------------------------------------|
E--------------------5--0000--2222--5555-------------------------------------|


Solo:
G----------------------------------------------------------------------------|
D----------------------------------------------------------------------------|
A-----------------(2222--5--------2222--5---2222--5)Repeat as nesscary-------|
E------22222-----------------------------------------------------------------|

Bridge:
G----------------------------------------------------------------------------|
D----------------------------------------------------------------------------|
A----------------------------------------------------------------------------|
E------3333---5555---7777--7--5--3-(Repeat)-then---3333--5555--22-22-22-22---|


This tab is owned by me Ross Johnston. Do not reproduce with giving me knowledge. You 
email me with complaints, requests for permission of use at socialloser13@hotmail.com
Comments