Donnas - Pass It Around Chords & Tabs

 

Pass It Around Chords & Tabs

Donnas Chords & Tabs

Version: 1 Type: Tab 0 ratings
1 star 2 stars 3 stars 4 stars 5 stars
comments

Pass It Around Tab

Hellooo... this should be pretty accurate, sorry if its not totally correct.
this band is totally bad ass, and this song rocks. just thought u might like
my opinion... ok time for me to shut up. time for you to rock.

STANDARD TUNING
ok....
the b means bend string upward, sorry if that messes you up during the solo

Intro:
1-----------------------------|
2--3-3-3-3-3---6-6---8--8-----|
3--2-2-2-2-2---5-5---7--7-----|
4--0-0-0-0-0---3-3---5--5-----|
5-----------------------------|
6-----------------------------|

Verse:
1-----------------------------|
2-----------------------------|
3--2-2-2-2--4-5-4-------------|
4--0-0-0-0--0-0-0--5-5-5------|
5------------------3-3-3--5-5-|
6-------------------------3-3-|

Prechorus:
1-----------------------------|
2-----------------------------|
3-----------------------------|
4--2-2-2----------------------|
5--0-0-0---5-5---3------------|
6----------3-3---1------------|

Prechorus ending 1:
1----------|
2--3-------|
3--2-------|
4--0-------|
5--0-------|
6----------|

Prechorus ending 2:
1------------------|
2-----5-6-5-6-5----|
3---5-5-5-5-5-5----|
4---5-5-7-5-7-5----|
5---3--------------|
6------------------|

Chorus:
1-----3-2-3--------------------------------|
2---3-3-3-3----------6-8----------3--------|
3---2-2-2-2----5-----5-7--2-------2--------|
4---0----------5--5--3-5--2--5-3--0--------|
5--------------3--5-------0--5-3-----------|
6-----------------3----------3-1-----------|
[ Tab from: http://www.guitartabs.cc/tabs/d/donnas/pass_it_around_tab.html ]
Solo:
1-------------------------------------------------------------|
2---10b-10b-10b----------------10b--10-7-----10b--10-------10-|
3---10b-10b-10b--7-9-7-----7-7-----------9-7---------9-7-9b---|
4----------------------7-9------------------------------------|
5-------------------------------------------------------------|
6-------------------------------------------------------------|

Solo continued:
1-------------------------------8---8---8---8--5b--5b--5b-----|
2-----10---10---10---10------10b-10b-10b-10b---8b--8b--8b-----|
3--9b----9b---9b---9b---9b------------------------------------|
4-------------------------------------------------------------|
5-------------------------------------------------------------|
6-------------------------------------------------------------|

Solo continued again:
1---8b---8b-----10b------10-13-10-----10------13-10----13-10-----|
2---11b--11b----13b--13b----------13b----13b--------13b------13b-|
3----------------------------------------------------------------|
4----------------------------------------------------------------|
5----------------------------------------------------------------|
6----------------------------------------------------------------|

More solo:
1--13-10-13-10----------------13------|
2--10-10-10-10--13b--13b--13b----13b--|
3---------------12b--12b--------------|
4-------------------------------------|
5-------------------------------------|
6-------------------------------------|


well, that should be it. i hope it suits you. please rate this tab and if there's
any problem with it, please feel free to fix it.
Comments