Donnas - Midnight Snack Chords & Tabs

 

Midnight Snack Chords & Tabs

Donnas Chords & Tabs

Version: 2 Type: Tab 0 ratings
1 star 2 stars 3 stars 4 stars 5 stars
comments

Midnight Snack Tab

Midnight snack: The Donnas
Tabbed by Martin Marriott
Email: scentless_2000@yahoo.com

This is a top tune off the donnas turn 21 album,
I?ve posted this and a couple of others.. might do some more.
But I cant get my head around 40 boys in 40 nights..
anyone got any tabs? get em posted!

Rock on


Main Riff:

E |-x-----------------------x--------------------3--|
B |-x-----------------------x--------------------3--|
G |-x-----------------------x------------5-5-----0--|
D |-x-2-2-----2--------2-2--x-2-2-----2--5-5-----0--|
A |-x-0-0-3-4-0?-3b-3b-0-0--x-0-0-3-4-0--3-3-2-0-2--|
E |-x-----------------------x--------------------3--|


Pre Chorus:

E |------------------------------------------|
B |------------------------------------------|
G |-4---4---4--4---4---4--5---5---5--7-7?-7--|
D |-4---4---4--4---4---4--5---5---5--7-7--7--|
A |-2-0-2-0-2--2-0-2-0-2--3-0-3-0-3--5-5--5--|
E |------------------------------------------|

Chorus:
[ Tab from: http://www.guitartabs.cc/tabs/d/donnas/midnight_snack_tab_ver_2.html ]
E |--------------------------------------|
B |--------------------------------------|
G |-2-----2---2-2--2---2-----2---2-2--2--|
D |-2-----2---2-2--2---2-----2---2-2--2--|
A |-0-3h4-0---0-0--0---0-3h4-0---0-0--0--|
E |--------------------------------------|

E |------------------------------------|
B |------------------------------------|
G |-4-4-4-4-4-4-4-4-----------5-5-5-5--|
D |-4-4-4-4-4-4-4-4--5-5-5-5--5-5-5-5--|
A |-2-2-2-2-2-2-2-2--5-5-5-5--3-3-3-3--|
E |------------------3-3-3-3-----------|
Palm mute		      *******************

Bridge:

E |------------------------------------|
B |------------------------------------|
G |-4-4-4-4--7-7-7-7-------------------|
D |-4-4-4-4--7-7-7-7--7-7-7-7-7-7-7-7--|
A |-2-2-2-2--5-5-5-5--7-7-7-7-7-7-7-7--|
E |-------------------5-5-5-5-5-5-5-5--|


E |------------------------------------|
B |------------------------------------|
G |-4-4-4-4--7-7-7-7-------------------|
D |-4-4-4-4--7-7-7-7--2-2-2-2-2-2-2-2--|
A |-2-2-2-2--5-5-5-5--2-2-2-2-2-2-2-2--|
E |-------------------0-0-0-0-0-0-0-0--|
Palm mute		      *******************

Cool riff after bridge

E |-------------------|
B |-------------------|	play 4 times
G |-------------------|
D |-------------------|
A |---------2-0-------|
E |--0?3-4------3b-0--|
Comments