Donnas - Lets Go Mano Chords & Tabs

 

Lets Go Mano Chords & Tabs

Donnas Chords & Tabs

Version: 1 Type: Tab 0 ratings
1 star 2 stars 3 stars 4 stars 5 stars
comments

Lets Go Mano Tab

-------------------------------------------------------------------------------
			     Let's go mano! - The Donnas
-------------------------------------------------------------------------------
Tabbed by:Lew
Email:Lewis@togneri3082.fslife.co.uk

Tuning:Standard

It doesn't really have an Intro, just goes straight to verse
The only difference is the little slides are played at the start

Verse
e|---------------------------------------------------------------------------|
B|---------------------------------------------------------------------------|
G|---------------------------------------------------------------------------|
D|--8/9-9-9-9-9----8/9-9-9-9-9----9-9-9-9-9-9-9-9-9-9-9-9-9-9----------------|
A|--8/9-9-9-9-9----8/9-9-9-9-9----9-9-9-9-9-9-9-9-9-9-9-9-9-9----------------|
E|--6/7-7-7-7-7----6/7-7-7-7-7----7-7-7-7-7-7-7-7-7-7-7-7-7-7----------------|

e|---------------------------------------------------------------------------|
B|---------------------------------------------------------------------------|
G|---------------------------------------------------------------------------|
D|--4-4-4-4-4-4-4-4----9-9-9-9-9-9-9-9-9----4-4-4-4----2-2-2-2----9----------|
A|--4-4-4-4-4-4-4-4----9-9-9-9-9-9-9-9-9----4-4-4-4----2-2-2-2----9----------|
E|--2-2-2-2-2-2-2-2----7-7-7-7-7-7-7-7-7----2-2-2-2----0-0-0-0----7----------|
[ Tab from: http://www.guitartabs.cc/tabs/d/donnas/lets_go_mano_tab.html ]
Chorus
e|---------------------------------------------------------------------------|
B|---------------------------------------------------------------------------|
G|---------------------------------------------------------------------------|
D|--9-9-9-9-9-9----2-2-2-2-2----4-4-4-4-4------------------------------------|
A|--9-9-9-9-9-9----2-2-2-2-2----4-4-4-4-4------------------------------------|
E|--7-7-7-7-7-7----0-0-0-0-0----2-2-2-2-2------------------------------------|

Then play the Verse and Chorus again

Bridge
e|---------------------------------------------------------------------------|
B|---------------------------------------------------------------------------|
G|---------------------------------------------------------------------------|
D|--2-2-2-2-2-2----9-9-9-9-9-9----11-11-11-11-11-11----4-4-4-4-4-4-----------|
A|--2-2-2-2-2-2----9-9-9-9-9-9----11-11-11-11-11-11----4-4-4-4-4-4-----------|
E|--0-0-0-0-0-0----7-7-7-7-7-7----9--9--9--9--9--9-----2-2-2-2-2-2-----------|

Then it's just Verse and Chorus again
And it ends like this, not much point putting it but may as well keep it neat :)

e|---------------------------------------------------------------------------|
B|---------------------------------------------------------------------------|
G|---------------------------------------------------------------------------|
D|--9-9-9-9-9-9-9-9-9--------------------------------------------------------|
A|--9-9-9-9-9-9-9-9-9--------------------------------------------------------|
E|--7-7-7-7-7-7-7-7-7--------------------------------------------------------|
Comments