Donnas - Friends Like Mine Chords & Tabs

 

Friends Like Mine Chords & Tabs

Donnas Chords & Tabs

Version: 3 Type: Tab 0 ratings
1 star 2 stars 3 stars 4 stars 5 stars
comments

Friends Like Mine Tab

   
-----------------------------------------------------------------------------
		         FRIENDS LIKE MINE - THE DONNAS
-----------------------------------------------------------------------------
Tabbed By: Nicholas Bradley
Email: RDK1LL@Hotmail.com
Comments: Off the "GOLD MEDAL" album, this is another easy song to play.
          If you can play the lead solo, people will think your cool even 
 	  if your not. 
	  By the way, only an idot would scratch brand name off the headstock
          of their guitar and write something else like "Gibson". (W R M)

Intro:
(w/Drum & Bass)
e|---------------------------------------|
B|---------------------------------------|
G|---------------------------------------|
D|---------------------------------------|
A|---------------------------------------|
E|----------------------------------12\--|

							       (played twice)
e|-----------7----------------7-------|-----------7----------------7--------|
B|-7---7---9-7---7---7-7--9---7-------|-7---7---9-7---7---7-7--9---7--------|
G|-8---8---9-7---8---8-8--9---7-------|-8---8---9-7---8---8-8--9---7--------|
D|-9---9---9-7---9---9-9--9---7-------|-9---9---9-7---9---9-9--9---7--------|
A|-9---9---------9---9-9--------------|-9---9---------9---9-9---------------|
E|-7---7---------7---7-7--------------|-7---7---------7---7-7---------------|

Verse 1: 
                      c'mon and show me              that you really know me

e|--7--------7---7-----------------------|-7--------7---7-------------------|
B|--7---5/7--7---7-----------------------|-7---5/7--7---7-------------------|
G|--8---6/8--8---8-----------------------|-8---6/8--8---8-------------------|
D|--9---7/9--9---9-----------------------|-9---7/9--9---9-------------------|
A|--9---7/9--9---9-----------------------|-9---7/9--9---9-----7----5--------|
E|--7---5/7--7---7-----------------------|-7---5/7--7---7--/7---7----7------|

                      so close so tight                at least for tonight

e|--7--------7---7-----------------------|-7--------7---7-------------------|
B|--7---5/7--7---7-----------------------|-7---5/7--7---7-------7-----------|
G|--8---6/8--8---8-----------------------|-8---6/8--8---8-------9<11--------|
D|--9---7/9--9---9-----------------------|-9---7/9--9---9---9---------------|
A|--9---7/9--9---9-----------------------|-9---7/9--9---9---9---------------|
E|--7---5/7--7---7-----------------------|-7---5/7--7---7---7---------------|

  turning silver and gold into rubber and glue    not supposed to let it get 

e|-3---3---3-3-------------------------|-----------------------------------|
B|-3---3---3-3------7---7---7-7--------|-7--(7)----------7--(7)------------|
G|-4---4---4-4------7---7---7-7--------|-8--(8)----------8--(8)------------|
D|-5---5---5-5------7---7---7-7--------|-9--(9)----------9--(9)------------|
A|-5---5---5-5------5---5---5-5--------|-9--(9)----------9--(9)------------|
E|-3---3---3-3-------------------------|-7--(7)----------7--(7)------------|

  to you        its easy to say but hard to do

e|-3---3---3-3-------------------------------|
B|-3---3---3-3------7---7---7-7----7--7------|
G|-4---4---4-4------7---7---7-7----8--8------|
D|-5---5---5-5------7---7---7-7----9--9------|
A|-5---5---5-5------5---5---5-5----9--9------|
E|-3---3---3-3---------------------7--7------|

Chorus:
   
    when you roll back into town      they'll all be around just to show you

e|-----------7-----------------7---------|----------------------------------|
B|-7---7---9-7--7---7-7-7--9---7---------|-3---3--------5---5-5-------------|
G|-8---8---9-7--8---8-8-8--9---7---------|-4---4---5/7--6---6-6-------------|
D|-9---9---9-7--9---9-9-9--9---7---------|-5---5---5/7--7---7-7-------------|
A|-9---9--------9---9-9-9----------------|-5---5---3/5--7---7-7----7---5----|
E|-7---7--------7---7-7-7----------------|-3---3--------5---5-5-/7---7---7--|

 that friends like mine will never let you down     until you hit the ground

e|-----------7-----------------7---------|----------------------------------|
B|-7---7---9-7--7---7-7-7--9---7---------|-3---3--------5-------------------|
G|-8---8---9-7--8---8-8-8--9---7---------|-4---4---5/7--6-------------------|
D|-9---9---9-7--9---9-9-9--9---7---------|-5---5---5/7--7-------------------|
A|-9---9--------9---9-9-9----------------|-5---5---3/5--7-------------------|
E|-7---7--------7---7-7-7----------------|-3---3--------5-------------------|
 							         (end chorus)
Main Riff:
               then they dont know you

e|-----------7----------------7-------|-----------7----------------7--------|
B|-7---7---9-7---7---7-7--9---7-------|-7---7---9-7---7---7-7--9---7--------|
G|-8---8---9-7---8---8-8--9---7-------|-8---8---9-7---8---8-8--9---7--------|
D|-9---9---9-7---9---9-9--9---7-------|-9---9---9-7---9---9-9--9---7--------|
A|-9---9---------9---9-9--------------|-9---9---------9---9-9---------------|
E|-7---7---------7---7-7--------------|-7---7---------7---7-7---------------|


Verse 2: 
                 take what you can borrow            but what about tomorrow

e|--7--------7---7-----------------------|-7--------7---7-------------------|
B|--7---5/7--7---7-----------------------|-7---5/7--7---7-------------------|
G|--8---6/8--8---8-----------------------|-8---6/8--8---8-------9---7-------|
D|--9---7/9--9---9-----------------------|-9---7/9--9---9----/9---9---------|
A|--9---7/9--9---9-----------------------|-9---7/9--9---9-------------------|
E|--7---5/7--7---7-----------------------|-7---5/7--7---7-------------------|

                just have to wait and see                 whats in it for me

e|--7--------7---7-----------------------|-7--------7---7-------------------|
B|--7---5/7--7---7-----------------------|-7---5/7--7---7-------7-----------|
G|--8---6/8--8---8-----------------------|-8---6/8--8---8-------9<11--------|
D|--9---7/9--9---9-----------------------|-9---7/9--9---9---9---------------|
A|--9---7/9--9---9-----------------------|-9---7/9--9---9---9---------------|
E|--7---5/7--7---7-----------------------|-7---5/7--7---7---7---------------|

  turning silver and gold into rubber and glue    not supposed to let it get 

e|-3---3---3-3-------------------------|-----------------------------------|
B|-3---3---3-3------7---7---7-7--------|-7--(7)----------7--(7)------------|
G|-4---4---4-4------7---7---7-7--------|-8--(8)----------8--(8)------------|
D|-5---5---5-5------7---7---7-7--------|-9--(9)----------9--(9)------------|
A|-5---5---5-5------5---5---5-5--------|-9--(9)----------9--(9)------------|
E|-3---3---3-3-------------------------|-7--(7)----------7--(7)------------|

  to you        its easy to say but hard to do

e|-3---3---3-3-------------------------------|
B|-3---3---3-3------7---7---7-7----7--7------|
G|-4---4---4-4------7---7---7-7----8--8------|
D|-5---5---5-5------7---7---7-7----9--9------|
A|-5---5---5-5------5---5---5-5----9--9------|
E|-3---3---3-3---------------------7--7------|

Chorus:
   
    when you roll back into town      they'll all be around just to show you

e|-----------7-----------------7---------|----------------------------------|
B|-7---7---9-7--7---7-7-7--9---7---------|-3---3--------5---5-5-------------|
G|-8---8---9-7--8---8-8-8--9---7---------|-4---4---5/7--6---6-6-------------|
D|-9---9---9-7--9---9-9-9--9---7---------|-5---5---5/7--7---7-7-------------|
A|-9---9--------9---9-9-9----------------|-5---5---3/5--7---7-7----7---5----|
E|-7---7--------7---7-7-7----------------|-3---3--------5---5-5-/7---7---7--|

 that friends like mine will never let you down     until you hit the ground

e|-----------7-----------------7---------|----------------------------------|
B|-7---7---9-7--7---7-7-7--9---7---------|-3---3--------5-------------------|
G|-8---8---9-7--8---8-8-8--9---7---------|-4---4---5/7--6-------------------|
D|-9---9---9-7--9---9-9-9--9---7---------|-5---5---5/7--7-------------------|
A|-9---9--------9---9-9-9----------------|-5---5---3/5--7-------------------|
E|-7---7--------7---7-7-7----------------|-3---3--------5-------------------|
 							         (end chorus)
Solo:
(rythym guitar)
e|------------------------------------|----------------------------------|
B|------------------------------------|----------------------------------|
G|------------------------------------|----------------------------------|
D|-9---9---7/9-9---9------------------|-9---9---7/9-9---9----------------|
A|-9---9---7/9-9---9------------------|-9---9---7/9-9---9----------------|
E|-7---7---5/7-7---7------------------|-7---7---5/7-7---7----------------|
(lead guitar)
e|------------------------------------|----------------------------------|
B|-----------------------7------------|----------------------------------|
G|-----------------------7------------|-------------9<11--11>9<11-9------|
D|----------------/9-9-9-----9~~~~~~--|-----------------------------9~~~~|
A|------------------------------------|----------------------------------|
E|------------------------------------|----------------------------------|

[ Tab from: http://www.guitartabs.cc/tabs/d/donnas/friends_like_mine_tab_ver_3.html ]
e|------------------------------------|----------------------------------|
B|------------------------------------|----------------------------------|
G|------------------------------------|----------------------------------|
D|-9---9---7/9-9---9-----(9)----------|-9---9---7/9-9---9----------------|
A|-9---9---7/9-9---9-----(9)----------|-9---9---7/9-9---9----------------|
E|-7---7---5/7-7---7-----(7)----------|-7---7---5/7-7---7----------------|

e|-------------------------------------|--------7-------7-------7-----------|
B|-------------------------10---(10)---|(10<12)---(<12)---(<12)---(12>10<12)|
G|-------------------7-9-7-------------|------------------------------------|
D|---------------9-9-------------------|------------------------------------|
A|-------------------------------------|------------------------------------|
E|-------------------------------------|------------------------------------|


e|-------------------------------------|------------------------------------|
B|-------------------------------------|------------------------------------|
G|---------------7-7-7-7-7-7/9-9-9-----|-8-8-8-8-8-8-8-8-8-8-8-8-8-8-8-8----|
D|-5-5-5-5-5-5-5-7-7-7-7-7-7/9-9-9-----|-9-9-9-9-9-9-9-9-9-9-9-9-9-9-9-9----|
A|-5-5-5-5-5-5-5-5-5-5-5-5-5/7-7-7-----|-9-9-9-9-9-9-9-9-9-9-9-9-9-9-9-9----|
E|-3-3-3-3-3-3-3-----------------------|-7-7-7-7-7-7-7-7-7-7-7-7-7-7-7-7----|

e|10--------10--------10--------10-----|------------------------------------|
B|--12>10<12--12>10<12--12>10<12--12>10|10<12>10p7-10-7---------------------|
G|-------------------------------------|------------------7-9-9<11>9p7------|
D|-------------------------------------|---------------/9--------------9-7h9|
A|-------------------------------------|------------------------------------|
E|-------------------------------------|------------------------------------|

e|-------------------------------------|------------------------------------|
B|-------------------------------------|------------------------------------|
G|---------------7-7-7-7-7-7/9-9-9-----|-8-8-8-8-8-8-8-8-8-8-8-8-8-8-8-8----|
D|-5-5-5-5-5-5-5-7-7-7-7-7-7/9-9-9-----|-9-9-9-9-9-9-9-9-9-9-9-9-9-9-9-9----|
A|-5-5-5-5-5-5-5-5-5-5-5-5-5/7-7-7-----|-9-9-9-9-9-9-9-9-9-9-9-9-9-9-9-9----|
E|-3-3-3-3-3-3-3-----------------------|-7-7-7-7-7-7-7-7-7-7-7-7-7-7-7-7----|

e|-------------------------------------|------------------------------------|
B|-7-----------------7-----------------|------------------------------------|
G|-7-----------------7-----------------|---------------7-9<11>9h7-9-7h9~~9\-|
D|-----9-x-x-7h9~~~9-----9-x-x-7h9~~~9-|-----------7-9----------------------|
A|-------------------------------------|-----5-7/9--------------------------|
E|-------------------------------------|-5-7--------------------------------|



e|-------------------------------------|------------------------------------|
B|-------------------------------------|------------------------------------|
G|---------------7-7-7-7-7-7/9-9-9-----|-8-8-8-8-8-8-8-8-8-8-8-8-8-8-8-8----|
D|-5-5-5-5-5-5-5-7-7-7-7-7-7/9-9-9-----|-9-9-9-9-9-9-9-9-9-9-9-9-9-9-9-9----|
A|-5-5-5-5-5-5-5-5-5-5-5-5-5/7-7-7-----|-9-9-9-9-9-9-9-9-9-9-9-9-9-9-9-9----|
E|-3-3-3-3-3-3-3-----------------------|-7-7-7-7-7-7-7-7-7-7-7-7-7-7-7-7----|

e|-----------------------------------|--------------------------------------|
B|-----------------------------------|--------------------------------------|
G|----7---7---7---7----6---6---6---6-|---9---9---9---9----11---11---11---11-|
D|-/9---9---9---9----7---7---7---7---|-9---9---9---9----9----9----9----9----|
A|-----------------------------------|--------------------------------------|
E|-----------------------------------|--------------------------------------|



e|-----------------------------------------|--------------------------------|
B|-----------------------------------------|--------------------------------|
G|---------------7-7-7-7-7-7/9-9-9---------|--------------------------------|
D|-5-5-5-5-5-5-5-7-7-7-7-7-7/9-9-9---------|-4-4-4-4-4-4-4-4-4-4------------|
A|-5-5-5-5-5-5-5-5-5-5-5-5-5/7-7-7---------|-4-4-4-4-4-4-4-4-4-4------------|
E|-3-3-3-3-3-3-3---------------------------|-2-2-2-2-2-2-2-2-2-2------------|
							 	   (end solo)
e|-----10------9---------------------------|--------------------------------|
B|--------------------12----10----10h12-12-|--------------------------------|
G|-/11------11-----11----11----11-11-------|-9-9-7-7-6-------7-9~~~~~~~~~~~~|
D|-----------------------------------------|-----------7-7h9----------------|
A|-----------------------------------------|--------------------------------|
E|-----------------------------------------|--------------------------------|


(w/bass and drum)
e|------------------------------------7--|----------------7---------------7-|
B|------------------------------------7--|----------------7---------------7-|
G|---------------------------------------|--------------------------------7-|
D|---------------------------------------|--------------------------------7-|
A|---------------------------------------|----------------------------------|
E|---------------------------------------|----------------------------------|

               your an open book                  heres a mirror take a look

e|-------------------------------------7-|----------------------------------|
B|-7---7-7-----------------------------7-|-7---7-7--------------------------|
G|-8---8-8-----------------------------7-|-8---8-8--------------------------|
D|-9---9-9-----------------------------7-|-9---9-9--------------------------|
A|-9---9-9-------------------------------|-9---9-9--------------------------|
E|-7---7-7-------------------------------|-7---7-7--------------------------|

           dont like what you see                            dont come to me

e|-------------------------------------7-|----------7---------------------7-|
B|-7---7-7-----------------------------7-|-7---7-7--7---------------------7-|
G|-8---8-8-----------------------------7-|-8---8-8------------------------7-|
D|-9---9-9-----------------------------7-|-9---9-9------------------------7-|
A|-9---9-9-------------------------------|-9---9-9--------------------------|
E|-7---7-7-------------------------------|-7---7-7--------------------------|

Chorus:
   
    when you roll back into town      they'll all be around just to show you

e|-----------7-----------------7---------|----------------------------------|
B|-7---7---9-7--7---7-7-7--9---7---------|-3---3--------5---5-5-------------|
G|-8---8---9-7--8---8-8-8--9---7---------|-4---4---5/7--6---6-6-------------|
D|-9---9---9-7--9---9-9-9--9---7---------|-5---5---5/7--7---7-7-------------|
A|-9---9--------9---9-9-9----------------|-5---5---3/5--7---7-7----7---5----|
E|-7---7--------7---7-7-7----------------|-3---3--------5---5-5-/7---7---7--|

 that friends like mine will never let you down     until you hit the ground

e|-----------7-----------------7---------|----------------------------------|
B|-7---7---9-7--7---7-7-7--9---7---------|-3---3--------5---5-5-------------|
G|-8---8---9-7--8---8-8-8--9---7---------|-4---4---5/7--6---6-6-------------|
D|-9---9---9-7--9---9-9-9--9---7---------|-5---5---5/7--7---7-7-------------|
A|-9---9--------9---9-9-9----------------|-5---5---3/5--7---7-7----7---5----|
E|-7---7--------7---7-7-7----------------|-3---3--------5---5-5-/7---7---7--|
 							         (end chorus)
                                                     then they dont know you

e|--7--------7---7--------7--7-----------|-7--------7---7----------7--7-----|
B|--7---5/7--7---7----9---7--7-----------|-7---5/7--7---7-----9----7--7-----|
G|--8---6/8--8---8--8-9---7--7-----------|-8---6/8--8---8---8-9----7--7-----|
D|--9---7/9--9---9--9-9---7--7-----------|-9---7/9--9---9---9-9----7--7-----|
A|--9---7/9--9---9--9---7----------------|-9---7/9--9---9---9---7-----------|
E|--7---5/7--7---7--7---7----------------|-7---5/7--7---7---7---7-----------|

  friends like mine will never let you down          then they dont know you

e|--7--------7---7--------7--7-----------|-7--------7---7-------------------|
B|--7---5/7--7---7----9---7--7-----------|-7---5/7--7---7-------------------|
G|--8---6/8--8---8--8-9---7--7-----------|-8---6/8--8---8-------------------|
D|--9---7/9--9---9--9-9---7--7-----------|-9---7/9--9---9-------------------|
A|--9---7/9--9---9--9---7----------------|-9---7/9--9---9-------------------|
E|--7---5/7--7---7--7---7----------------|-7---5/7--7---7-------------------|


e|---------------------------------------|----------------------------------|
B|-9---7---7---5----7--------------------|------------------------7---------|
G|-9---8---7---6----8--------------------|------------------------9<11------|
D|-9---9---7---7----9--------------------|----------------------------------|
A|-7---9---5---7----9--------------------|----------------------------------|
E|-----7-------5----7--------------------|----------------------------------|




| /  slide up
| \  slide down
| h  hammer-on
| p  pull-off
| ~  vibrato
| +  harmonic
| x  Mute note
| () Let Ring
| <  Bend
| >  Release Bend
=============================================================================
Comments