Donnas - Friends Like Mine Chords & Tabs

 

Friends Like Mine Chords & Tabs

Donnas Chords & Tabs

Version: 2 Type: Tab 0 ratings
1 star 2 stars 3 stars 4 stars 5 stars
comments

Friends Like Mine Tab

this is how i play it. i dont have the timing in here either. this is my first tab so go 
on me

[ Tab from: http://www.guitartabs.cc/tabs/d/donnas/friends_like_mine_tab_ver_2.html ]
-------7-7---------------7-7----------|
-------8-7---------------8-7----------|
-8--8--8-7-----8-8-8-8---8-7----------|
-9--9--8-7-----9-9-9-9---8-7----------|
-9--9--7-7-----9-9-9-9---7-7----------|
-7--7--7-7-----7-7-7-7---7-7----------|


the bass intro on guitar is something like this:

-----------------------------|
-----------------------------|
-----------------------------|
-----------------------------|
-----------------------------|
-7--7-7-5-7-5-7--7-7-7-5-7-5-|

if you have any corrections let me know
wannabedonnac@yahoo.com
Comments