Donnas - Dont Break Me Down Chords & Tabs

 

Dont Break Me Down Chords & Tabs

Donnas Chords & Tabs

Version: 1 Type: Tab 0 ratings
1 star 2 stars 3 stars 4 stars 5 stars
comments

Dont Break Me Down Tab

Dont break me down guitar tab: -

/= slide up to note

E-----------------------------------------------------------|
B-----------------------------------------------------------|
G---9-------------------------------------------------------|
D---9-----------------------------------------------5-5-----|
A---7--------------------5-5------------------------------7-|
E--------------0-0--/7---------7-----0-0---/7---------------|


E-----------------------------------------------------------|
B-----------------------------------------------------------|
G-------------------------------------------5---7-----------|
D-------------------------------------------5---7-----------|
A-------------5-5-------------------------------------------|
E---0-0--/7---------7-----0-0--/7---------------------------|

dont break me.......
E------------------------------------------------------------------|
B------------------------------------------------------------------|
G-------------------------------------------------------------5--7-|
D-------------------------------------------------------------5--7-|
A----------------------------------5-5-----------------------------|
E--0-x-x-x-x-x....--0-0--/7----------7---0-0--/7-------------------|
muted chug

[ Tab from: http://www.guitartabs.cc/tabs/d/donnas/dont_break_me_down_tab.html ]
i cant remember......
E---------------------------------------------------------------------|
B---------------------------------------------------------------------|
G--9----9-----7--7----9--------------------9-------9---7-7-7--9-9-9-9-|
D--9----9-----7--7----9--------------------9-------9---7-7-7--9-9-9-9-|
A--7----7-----5--5----7--------------------7-------7---5-5-5--7-7-7-7-|
E----0-----0---------------0-0-0-0-0-0-0------0-----------------------|


chorus
E--3--------------------------------------------------3----|
B--3--------------------------------------------------3----|
G--0----5-5--7--5-5-5--7--5-5-5--7--5----0---5-5-7--5-5----|
D--0----5-5--7--5-5-5--7--5-5-5--7--5----0---5-5-7--5-5----|
A--2----3-3--3--3-3-3--3--3-3-3--3--3----2---3-3-3--3-3----|
E--3--------------------------------------------------3----|


E-------------------2-------------------------------------------|
B-------------------3----0--------------------------------------|
G--5-5-5-5-----2----0-------------------------------------------|
D--5-5-5-5-----0----2-----------------------------------5-5-----|
A--3-3-3-3----------2------------5-5-------------------------7--|
E-----------------------0-----0--/7-------7---0-0--/7-----------|

E---------------------------------------------------next verse-----|
B------------------------------------------------------------------|
G------------------------------------------------------------------|
D---------------------------------------5-5------------------------|
A------------5-5------------------------------7--------------------|
E--0-0--/7---------7---0-0---/7------------------------------------|
Comments