Donnas - Dancing With Myself Chords & Tabs

 

Dancing With Myself Chords & Tabs

Donnas Chords & Tabs

Version: 1 Type: Tab 0 ratings
1 star 2 stars 3 stars 4 stars 5 stars
comments

Dancing With Myself Tab

this is The Donnas version of Dancing With myself. i think that it's actually a pretty 
version!
ok this is basically the billy idol version excpet different frets.

Intro (it does it in the verse too)
e----------------|
B---333235333----|
G----------------|
D----------------|
A----------------|
E----------------|

Verse
one guitar plays the intro 2x then does this then the intro again
e-----------------|
B--332222332222---|
G-----------------|
D-----------------|
A-----------------|
E-----------------|

the other guitar plays this
e--------------------|
B--------------------|
G----5---------------|
D----5---3---5---3---|
A----3---3---5---3---|
E--------1---3---1---|

play each 16x palm muted

Chorus
for this part of the song, it sounds like one guitar plays the chords just once and the 
does a strumming pattern
e-------------------|
B-------------------|
G---5---------------|
D---5---3---5---3---|
A---3---3---5---3---|
E-------1---3---1---|

Verse
[ Tab from: http://www.guitartabs.cc/tabs/d/donnas/dancing_with_myself_tab.html ]
Bridge
ok so for this part, there's only one guitar which does a solo

e----------------------------------------|
B----------------------------------------|
G----------------------------------------|
D---------------7777------------77b8r7---|
A-------55557777--------55557777---------|
E---5555------------5555-----------------|

e----------------------------------------|
B----------------------------------------|
G----------------------------------------|
D---------------7777------------77b8r7---|
A-------55557777--------55557777---------|
E---5555------------5555-----------------|

e----------------------|
B----------------------|
G----------------------|
D---7777777777777777---|
A----------------------|
E----------------------|

Verse
after this it does the verse again but on the second time around there's no little solo. 
guitars palm mute the chords.

Chorus

Outro
after the chorus the guitars keep doing the same chords until the song ends.

e---------|
B---------|
G-5-------|
D-5---3---|
A-3---3---|
E-----1---|

Intro
Verse
Chorus
Verse
Chorus
Bridge
Chorus
Outro

hope these help!
Comments