Donnas - 40 Boys In 40 Nights Chords & Tabs

 

40 Boys In 40 Nights Chords & Tabs

Donnas Chords & Tabs

Version: 2 Type: Tab 0 ratings
1 star 2 stars 3 stars 4 stars 5 stars
comments

40 Boys In 40 Nights Tab

   
Artist: The Donnas
Title: 40 Boys In 40 Nights
Album: Turn 21
Tuning: normal (E A D G B E)
Tabbed by: Schadi (Schadhauserflo@aol.com)

Four hot girls are playing dirty Rock N' Roll!!
Life can be great!
This is one if my favourite songs!
I'd like to be one of those 40 Boys.

INTRO
----------------------------------------------
----------------------------------------------
--10--x-x----8--8--------------7-7--5---------
--10--x-x----8--8--8-----8-8---7-7--5---------
--8---x-x----6--6--8--x--8-8---5-5--3---------
-(8)---------------6--x--6-6------------------


----------------------------------------------
----------------------------------------------
--10--x-x----8--8--------------7-7--5---------
--10--x-x----8--8--8-----8-8---7-7--5---------
--8---x-x----6--6--8--x--8-8---5-5--3---------
-(8)---------------6--x--6-6------------------


----------------------------------------------
----------------------------------------------
--10--x-x----8--8--------------7-7--5---------
--10--x-x----8--8--8-----8-8---7-7--5---------
--8---x-x----6--6--8--x--8-8---5-5--3---------
-(8)---------------6--x--6-6------------------


----------------------------------------------
----------------------------------------------
--10--x-x----8--8--------------10-------------
--10--x-x----8--8--8----10--10-10-------------
--8---x-x----6--6--8----10--10-8--------------
-(8)---------------6----8---8-----------------


For the next part just use these chords:
[ Tab from: http://www.guitartabs.cc/tabs/d/donnas/40_boys_in_40_nights_tab_ver_2.html ]
  F   Bb  C   G
----------------------------------------------
----------------------------------------------
------3---5-----------------------------------
--3---3---5---5-------------------------------
--3---1---3---5-------------------------------
--1-----------3-------------------------------


          F            Bb F Bb   
"Spending every night ... 

          C                Bb             C
"Spending every ... I come in ... have a look ...

    F            Bb
"I find ... who wants to get down"
BRIDGE

        G        C
"I got boys ... road"

        G        C
"I got boys ...


CHORUS = INTRO


SOLO (not 100%, but almost)
   F(8. fr)                     C(?)                    Bb      
--------------------------------------------------------------------------
---4-4-4------------------------------------------------------------------
---3-3-3--1--3-1-3-1-3p1h3p1-----------1-2-1------------------------------
-----------------------------3----1--3-------3---1-2-3--------------------
--------------------------------3-----------------------1---1-2-3---1h3p1-
-------------------------------------------------------------------1-3----

                C
-------------------------------------------------------
-------------------------------------------------------
-------------------------------------------------------
----------------1-1-1-1--------------------------------
--1-1-1-----1-3---------1-3----------------------------
----------3--------------------------------------------
Comments