Donavon Frankenreiter - On My Mind Chords & Tabs

 

On My Mind Chords & Tabs

Donavon Frankenreiter Chords & Tabs

Version: 3 Type: Tab 0 ratings
1 star 2 stars 3 stars 4 stars 5 stars
comments

On My Mind Tab

   
-----------------------------------------------------------------------------
			     ON MY MIND - Donavon Frankenreiter
-----------------------------------------------------------------------------

Tabbed By: rodeoclown89

Chords Used:

     A   Bm7  Dm    G    D
e|---5---2----5-----3----5--|
B|---5---3----6-----3----7--|
G|---6---2----7-----4----7--|
D|---7---4----7-----5----7--|
A|---7---2----5-----5----5--|
E|---5---x----5-----3----5--|

Verse 1:
  A                  Bm7
Oh baby, let's get down tonight
Every time with you, it feels so right
Let's go sit underneath that willow tree
Oh baby, just you and me

Chorus part 1:
  D        Dm      A
You know I can't see you all the time		Riff 1
I gotta let you know you're on my mind		Riff 2
Even though I can't see you all the time	Riff 1
Gotta let you know - you're on my mind		Riff 3

Riff 1:
e|-5-----5-----5---5h7p5-------------------|
B|-7-----6-----5----------5h7p5------------|
G|-7-----7-----6-----------------4h6p42---|
D|-7-----7-----7---------------------------|
A|-5-----5-----7---------------------------|
E|-5-----5-----5---------------------------|

Riff 2:
e|-5-----5-----5--------------------5------|
B|-7-----6-----5---------------5h7---------|
G|-7-----7-----6--------2-4/6--------------|
D|-7-----7-----7---2h4---------------------|
A|-5-----5-----7---------------------------|
E|-5-----5-----5---------------------------|
[ Tab from: http://www.guitartabs.cc/tabs/d/donavon_frankenreiter/on_my_mind_tab_ver_3.html ]
Riff 3:
e|-5-----5-----5---------------------------|
B|-7-----6-----5---------------------------|
G|-7-----7-----6--------2--4/6-4-2--2----|
D|-7-----7-----7---2h4---------------------|
A|-5-----5-----7---------------------------|
E|-5-----5-----5---------------------------|

Chorus part 2:
A             G                Bm7
Girl you're, on my mind, on my mind again
On my mind, on my mind, on my mind again
On my mind, on my mind, on my mind again
     A                       Bm7
And I gotta let you know, that I'll - never let you go

Verse 2:
      A                 Bm7
You take those clouds and make a sunny day
Love to watch you do it, just in your own way
You take my day into night
Still give me all of that lovin' right, lovin' right yeah

Chorus part 1:
  D        Dm      A
You know I can't see you all the time		Riff 1
I gotta let you know you're on my mind		Riff 2
Even though I can't see you all the time	Riff 1
Gotta let you know - you're on my mind		Riff 3

Chorus part 2:
A             G                Bm7
Girl you're, on my mind, on my mind again  (Woman don't you know)
You're on my mind, on my mind again        (Oh i gotta let you know)
You're on my mind, on my mind again        (Cause you're)
On my mind, on my mind again 

| /  slide up
| \  slide down
| h  hammer-on
| p  pull-off
| ~  vibrato
| +  harmonic
| x  Mute note

=============================================================================
Comments