Donavon Frankenreiter - Free Chords & Tabs

 

Free Chords & Tabs

Donavon Frankenreiter Chords & Tabs

Version: 1 Type: Bass Tab 0 ratings
1 star 2 stars 3 stars 4 stars 5 stars
comments

Free Bass Tab

this is the new version of free with jack johnson on ukulele.... 
i figured out the bass for the older version too if anyone wants
it....





G--4--------4---------9---------9---------
D-5-5-4-4--2-2------10-10-9-9--7-7-------- x2 for verse
A--------------5-5----------------9-9-----
E-----------------------------------------

[ Tab from: http://www.guitartabs.cc/tabs/d/donavon_frankenreiter/free_btab.html ]
G-------5----------------------------------
D-5-5-3---3-------------------------------- x4 for chorus
A-----------3-3-3-3------------------------
E------------------------------------------


G------------------------------------------
D-5-5/2-2--------3--5/2-2------------------ x1 for bridge
A---------3-3/5-5---------3-3/2-2/0--------
E------------------------------------------

verse
chorus
verse
bridge
verse
chorus (end on a g note)

corrections...? enjoi@cashette.com
Comments