Don Williams - I Believe In You Chords & Tabs

 

I Believe In You Chords & Tabs

Don Williams Chords & Tabs

Version: 1 Type: Tab 0 ratings
1 star 2 stars 3 stars 4 stars 5 stars
comments

I Believe In You Tab

   
-------------------------------------------------------------------------------
			     I Believe in You - Don Williams
-------------------------------------------------------------------------------
Tabbed by:Jordan Beck
I dont know if this is totally right but it should give you the right idea

Tuning:Standard
[ Tab from: http://www.guitartabs.cc/tabs/d/don_williams/i_believe_in_you_tab.html ]
                                 |Try Alternate Picking This Part|
e|--------------------------------9-9-9-9---7-7-7-7---5-5-5-5---3-3-3-3------|
B|---------------------------------9-9-9-9---7-7-7-7---5-5-5-5---3-3-3-3-----|
G|---------------------------------------------------------------------------|
D|-2-2-2-4b-2---2-2-2-4b-2-/6------------------------------------------------|
A|-----------2---------------------------------------------------------------|
E|---------------------------------------------------------------------------|

Hope it Gets you off to a good start 
HAVE FUN!


| /  slide up
| \  slide down
| h  hammer-on
| p  pull-off
| ~  vibrato
| +  harmonic
| x  Mute note
| b  Bend note
===============================================================================
Comments