Don Henley - Theyre Not Here Theyre Not Coming Chords & Tabs

 

Theyre Not Here Theyre Not Coming Chords & Tabs

Don Henley Chords & Tabs

Version: 1 Type: Bass Tab 0 ratings
1 star 2 stars 3 stars 4 stars 5 stars
comments

Theyre Not Here Theyre Not Coming Bass Tab

   
Song: They're not here, they're not coming
Artist: Don Henley
Tabbed by: Timothy Morrison
E-mail: bass_bassist@hotmail.com	

Tuning: G, D, A, E

It's a very easy song, and you don't have to play a lot. 
But it's worth it! It's Don Henley!
-----------------------------------

Intro: 
        *Drums*
|---------|---------------|---------------|---------|
|---------|---------------|---------------|---------|
|---2-/-3-|---------------|-3-3-0---------|---------|
|-3-------|-r-r-r-r-r-r-r-|-------3-3-\-0-|-r-r-r-r-|

|-------|-----|---------------------|---------------|
|-------|-----|-5---------5---------|---------------|
|-7-\-3-|-----|---3-3-3-3---3-3-3-3-|---------------|
|-------|-r-r-|---------------------|-r-r-r-r-r-r-r-|

Verse 1:
        "From the..."   ..."grain"        "...souvenirs"
|-------------|-----------------------|-----------------------|
|-------------|-------------7-5-------|-----------------------|
|-----5-7-5-3-|-----------------8-7---|---------3-3-3---3-3-3-|
|-3-5---------|---------------------8-|-----------------------|

	  "They swear..."    "...in '47"           "Little man..."
|---------|----------------------------------|
|---------|------------------------2-5-2-----|
|-----2-3-|----------------------3-------5-3-|
|-3-5-----|----------------------------------|

             "Splattered..."  		      "Hidden..."
|-------------|----------------------------|
|-------------|----------------------------|
|-----3-------|----------------------------|
|-3-5---5-3-3-|--------------------3-2-\-0-|

Pre-chorus:
 "Cold..."     "Post..."           "No..."       "no..."
|-------|-------|-------------|-----|-------|
|-------|-2-3---|---3-5-3-\---|-----|-------|
|---5---|-------|-----------5-|-----|---2-3-|
|-------|-------|-------------|--3--|-5-----|

Chorus:
|---|---|---|---|---|---|---|---|
|---|---|-2-|---|---|---|-2-|-3-|
|-3-|---|---|-5-|-3-|---|---|---|
|---|-3-|---|---|---|-3-|---|---|
[ Tab from: http://www.guitartabs.cc/tabs/d/don_henley/theyre_not_here_theyre_not_coming_btab.html ]
Verse 2:
 "Would..."  "Find..."  "...Screaming..."	"Well, I..."
|---------|-------|---------------|---------|
|---------|-------|---------------|---------|
|-----2-3-|-----3-|-------3-------|-----2-3-|
|-3-5-----|-3-5---|---------------|-3-5-----|

Pre-chorus:
 "Cold..."     "Post..."           "No..."     "The radio..."
|-------|-------|-------------|-----|-------|
|-------|-2-3---|---3-5-3-\---|-----|-------|
|---5---|-------|-----------5-|-----|---2-3-|
|-------|-------|-------------|--3--|-5-----|

Chorus:
|---|---|---|---|---|---|---|---|
|---|---|-2-|---|---|---|-2-|-3-|
|-3-|---|---|-5-|-3-|---|---|---|
|---|-3-|---|---|---|-3-|---|---|



Bridge:
"...Garden..." "...And always..."  "...Granted..." "...Like..."  "..Just bloom"  "...planted"
|---------|---------------|-----------|---------|---------------|---------|
|---------|------2-3------|-----------|---------|------2-3------|---------|
|----5----|---------------|-----3-----|----5----|---------------|----3----|
|---------|---------------|-----------|---------|---------------|---------|

"...Long..." "...this world..." "...strife..." "...for a spiritual..."
|-------|-------------|-----------|-----------5-------|
|-------|------2-3----|-----------|---------5---------|
|---5---|----5--------|----5-3----|-------3-----------|
|-------|-------------|-----------|-------------------|

Solo:
|---------------------------------|
|---------------------------------|
|-3-3-3-3-3-3-3-3-3-3-3-3-3-3-3-3-|
|---------------------------------|	4X

Pre-chorus:
 "Cold..."     "Post..."           "No..."       "Bring back..."
|-------|-------|-------------|-----|-------|
|-------|-2-3---|---3-5-3-\---|-----|-------|
|---5---|-------|-----------5-|-----|---2-3-|
|-------|-------|-------------|--3--|-5-----|

Chorus:
|---|---|---|---|---|---|---|---|
|---|---|-2-|---|---|---|-2-|-3-|
|-3-|---|---|-5-|-3-|---|---|---|
|---|-3-|---|---|---|-3-|---|---|  2X

Outro:
|-------------|-------------|-------------|
|-8-8-8-6-5-5-|-------------|-----------5-|
|-------------|-8-8-8-7-----|-------------|
|-------------|---------8-8-|-6-6-6-5-3---|


Morrison	©®™etc...
Comments