Don Henley - The Boys Of Summer Chords & Tabs

 

The Boys Of Summer Chords & Tabs

Don Henley Chords & Tabs

Version: 2 Type: Bass Tab 0 ratings
1 star 2 stars 3 stars 4 stars 5 stars
comments

The Boys Of Summer Bass Tab

Song: The boys of summer (DVD version)
Artist: Don Henley
Tabbed by: T. Morrison (bass_bassist@hotmail.com)
Tuning: GDAEB (5-string, because it’s the DVD version!)

The DVD version is played on a 5-string and it’s played lower…
(Not D#, but D… for example)

Watch the DVD “Live inside Job”, you’ll see and hear!
--------------------------------------------------------------

Intro:

G|-7~-|-3~-|-5~-|-3~-|------|
D|----|----|----|----|------|
A|----|----|----|----|------|
E|----|----|----|----|------|
B|----|----|----|----|-11-\-|


Verse 1:

|---|---|---|---|---|
|---|---|---|---|---|
|---|-1-|-3-|-1-|-1-|
|---|---|---|---|---|
|-3-|---|---|---|---|


Chorus:
	      “But I …”                  “And I can…”
|-----|-------------|---|---|---|-----|-------------|---|---|---|
|-----|-------------|---|---|---|-----|-------------|---|---|---|
|-1-3-|-------------|-3-|-3-|-1-|-1-3-|-------------|-3-|-3-|-1-|
|-----|------1------|---|---|---|-----|------1------|---|---|---|
|-----|-------------|---|---|---|-----|-------------|---|---|---|


Instrumental:

|--------|---|---|---|------|
|--------|---|---|---|------|
|--------|---|---|---|------|
|--------|-1-|-3-|-1-|------|
|-11-\-3-|---|---|---|-11-\-|

Verse 2:

|---|---|---5-|---|---|
|---|---|-----|---|---|
|---|-1-|-3---|-1-|-1-|
|---|---|-----|---|---|
|-3-|---|-----|---|---|


Chorus:
	      “But I …”                  “And I can…”
|-----|-------------|---|---|---|-----|-------------|---|---|---|
|-----|-------------|---|---|---|-----|-------------|---|---|---|
|-1-3-|-------------|-3-|-3-|-1-|-1-3-|-------------|-3-|-3-|-1-|
|-----|------1------|---|---|---|-----|------1------|---|---|---|
|-----|-------------|---|---|---|-----|-------------|---|---|---|


Solo:
[ Tab from: http://www.guitartabs.cc/tabs/d/don_henley/the_boys_of_summer_btab_ver_2.html ]
|---------|-10~-|-12~-|-14p12p10h12~-|-10-9----------------|---|---|---------|---|-------|
|---------|-----|-----|--------------|------10-7-----------|---|---|---------|---|-------|
|---------|-----|-----|--------------|-----------8-7-------|---|-1-|-1-/-5-3-|-1-|-1-0---|
|---------|-----|-----|--------------|---------------8-5-\-|---|---|---------|---|-----1-|
|-r-r-r-r-|-----|-----|--------------|---------------------|-3-|---|---------|---|-------|


Verse 2:

|---|---3-|---|-----|---|
|---|-----|---|-----|---|
|---|-1---|-3-|-3-1-|-1-|
|---|-----|---|-----|---|
|-3-|-----|---|-----|---|


Chorus:
	      “But I …”                  “And I can…”
|-----|-------------|---|---|---|-----|-------------|---|---|---|
|-----|-------------|---|---|---|-----|-------------|---|---|---|
|-1-3-|-------------|-3-|-3-|-1-|-1-3-|-------------|-3-|-3-|-1-|
|-----|------1------|---|---|---|-----|------1------|---|---|---|
|-----|-------------|---|---|---|-----|-------------|---|---|---|

	      “But I …”                  “And I can…”
|-----|-------------|---|---|---|-----|-------------|---|---|---|
|-----|-------------|---|---|---|-----|-------------|---|---|---|
|-1-3-|-------------|-3-|-3-|-1-|-1-3-|-------------|-3-|-3-|-1-|
|-----|------1------|---|---|---|-----|------1------|---|---|---|
|-----|-------------|---|---|---|-----|-------------|---|---|---|


Outro (some kind of “solo”. You know, that guitar thingy)

|-----|-------------|---|---|---|-----|-------------|---|---|---|
|-----|-------------|---|---|---|-----|-------------|---|---|---|
|-1-3-|-------------|-3-|-3-|-1-|-1-3-|-------------|-3-|-3-|-1-|
|-----|------1------|---|---|---|-----|------1------|---|---|---|
|-----|-------------|---|---|---|-----|-------------|---|---|---|

|-----|-------------|---|---|---|-----|-------------|---|---|---|---|---|---|---|
|-----|-------------|---|---|---|-----|-------------|---|---|---|---|---|---|---|
|-1-3-|-------------|-3-|-3-|-1-|-1-3-|-------------|-3-|-3-|-1-|-1-|-1-|---|---|
|-----|------1------|---|---|---|-----|------1------|---|---|---|---|---|-3-|---|
|-----|-------------|---|---|---|-----|-------------|---|---|---|---|---|---|-3-|
Comments