Don Henley - Taking You Home Chords & Tabs

 

Taking You Home Chords & Tabs

Don Henley Chords & Tabs

Version: 1 Type: Bass Tab 0 ratings
1 star 2 stars 3 stars 4 stars 5 stars
comments

Taking You Home Bass Tab

   
Artist: Don Henley
Song: Taking you home
Tabbed by: Timothy Morrison
E-mail: bass_bassist@hotmail.com
Tuning: G, D, A, E, B (5-string)

Intro:
|---|---|---|---|---|---|-----|
|---|---|---|---|---|---|-----|
|---|---|---|---|---|-3-|-----|
|---|---|---|---|-3-|---|-----|
|-3-|-3-|-5-|-5-|---|---|-1-3-|

Verse 1:
|---|---|---|-----|---|---|---|-----|---|-----|---|---|---|-----|---|-----|
|---|---|---|-----|---|---|---|-----|---|-----|---|---|---|-----|---|-----|
|---|---|---|-----|---|---|---|-----|---|-----|---|---|---|-----|---|-----|
|-7-|---|-7-|-----|---|---|-3-|-5-5-|-7-|-----|-7-|---|---|-----|-3-|-5-5-|
|---|-7-|---|-7-7-|-5-|-7-|---|-----|---|-7-7-|---|-7-|-5-|-5-7-|---|-----|

Chorus:
|---|---|---|---|---|-----|---|-----|---|---|---|---|
|---|---|---|---|---|-----|---|-----|---|---|---|---|
|---|---|---|---|---|-----|---|-----|-3-|-3-|---|---|
|---|-5-|---|---|-5-|-----|-2-|-3-3-|---|---|---|---|
|-3-|---|-5-|-3-|---|-5-5-|---|-----|---|---|-3-|-3-|

Verse 2:
|---|---|---|-----|---|-----|---|-----|
|---|---|---|-----|---|-----|---|-----|
|---|---|---|-----|---|-----|---|-----|
|-7-|---|-7-|-----|---|-----|-3-|-5-5-|
|---|-7-|---|-7-7-|-5-|-7-7-|---|-----|

Chorus:
|---|---|---|---|---|-----|---|-----|---|---|---|---|
|---|---|---|---|---|-----|---|-----|---|---|---|---|
|---|---|---|---|---|-----|---|-----|-3-|-3-|---|---|
|---|-5-|---|---|-5-|-----|-2-|-3-3-|---|---|---|---|
|-3-|---|-5-|-3-|---|-5-5-|---|-----|---|---|-3-|-3-|
[ Tab from: http://www.guitartabs.cc/tabs/d/don_henley/taking_you_home_btab.html ]
Bridge:
|---|-----|-----|-5-4-|-----|-----|-----|-2-2-|-2-|
|---|-----|-3-3-|-----|-----|-----|-3-3-|-----|---|
|---|-----|-----|-----|-----|-----|-----|-----|---|
|---|-----|-----|-----|-----|-----|-----|-----|---|
|-3-|-5-5-|-----|-----|-3-3-|-5-5-|-----|-----|---|

Solo:
|---|---|---|---|---|-----|---|-----|
|---|---|---|---|---|-----|---|-----|
|---|---|---|---|---|-----|---|-----|
|-7-|---|-7-|---|---|-----|-3-|-5-5-|
|---|-7-|---|-7-|-5-|-7-7-|---|-----|

Chorus:
|---|---|---|---|---|-----|---|---|-----|---------|---------|
|---|---|---|---|---|-----|---|---|-----|---------|---------|
|---|---|---|---|---|-----|---|---|-----|-3---3-3-|---------|
|---|-5-|---|---|-5-|-----|---|-5-|-3-3-|---------|-3---3-3-|
|-3-|---|-5-|-3-|---|-5-5-|-3-|---|-----|---------|---------|

|---|---|-----|---|---|-----|---|---|---|-----|---|
|---|---|-----|---|---|-----|---|---|---|-----|---|
|---|---|-----|---|---|-----|---|---|---|-3-3-|---|
|---|-5-|-----|---|-5-|-----|---|-5-|-3-|-----|-3-|
|-3-|---|-5-5-|-3-|---|-5-5-|-3-|---|---|-----|---|

|---|-----|-------|-----|---|---|---|-------|-------|-------|---------|-------|-----|-----|-----|-----|------|
|---|-----|-------|-----|---|---|---|-------|-------|-------|---------|-------|-----|-----|-----|-----|------|
|---|-----|-------|-----|---|---|---|-------|-------|-------|---------|-------|-----|-----|-----|-5-4-|------|
|---|-----|-------|-----|-3-|-3-|---|-------|-------|-------|---------|-------|-----|-3-3-|-3-3-|-----|------|
|-3-|-3-3-|-5---5-|-5-5-|---|---|-5-|-3---3-|-3---3-|-3---3-|-3---3-3-|-5---5-|-5-5-|-----|-----|-----|-3...-|
Comments